Oops, an error
Loading. Please wait.

La Malaguena Tab

version 1
version 1

Intro

Interactive

106 views 3 this week
no commentswrite comment
1 2 3 4 5
2 more votes to show rating
add to favorites
launch autoscroll
font size
0
reset
how to read this tab
guitar tuner
Autoscroll
slow
fast
+/-
esc
set tempo
stop
Help us to improve Ultimate-Guitar.com Take our survey!
×
Author
Intro of song La Malagueña


E|---------0---------0--------0--------| 
B|---2---2----2----2----2---2----3-2-3-| 
G|-2---2----2---2-----2----2-----------| 
D|-------------------------------------| 
A|-------------------------------------| 
E|-------------------------------------|

E|---------1-------1---3-1-0-----------| 
B|---3---3----3---3----------3-3-1-0-1-| 
G|-2---2----2---2----------------------| 
D|-------------------------------------| 
A|-------------------------------------| 
E|-------------------------------------| 
  

E|---0---0--3----0----0--3----5-3-1-0-3-1-0-1-| 
B|-1---1-------1----1-------------------------| 
G|--------------------------------------------| 
D|--------------------------------------------| 
A|--------------------------------------------| 
E|--------------------------------------------| 


E|---0-1-3-5-3-1-0-3-1-0----1-0-------0-0-----| 
B|-3----------------------3-----3-2-------2---| 
G|------------------------------------------2-| 
D|--------------------------------------------| 
A|--------------------------------------------| 
E|--------------------------------------------| 
 

                       
E|----------------------1-| 
B|----------------------3-| 
G|-2-3-2-0---------2----2-| 
D|---------3-2-0-3------0-| 
A|------------------------| 
E|------------------------| 
  
                       
Suggest correction
Give kudos to tab author, rate the tab!
1 2 3 4 5
comments
print report bad tab
guest
You may want to rate the tab now too:
select rating
Wanna post a correction for this tab? Suggest correction