Oops, an error
Loading. Please wait.

Malaguena Tab

version 1
version 1

Whole song

86,229 views 120 this week
3 commentsread comments
1 2 3 4 5
x 31
add to favorites
launch autoscroll
font size
0
reset
how to read this tab
guitar tuner
×
Best way to learn
"Malaguena"
Autoscroll
slow
fast
+/-
esc
set tempo
stop
MALAGUENA (SPANISH STYLE)


e|----0---0---0----0---0---0----0---0---0---0---0----------------------|
B|----------0------------0--------1---0--------------------------------|
G|------1------------1--------2-----------2---0------------------------|
D|--2------------2--------------------------------3--------------------|
A|---------------------------------------------------------------------|
E|---------------------------------------------------------------------|


e|----0---0---0----0---0---0----0---0---0---0---0----------------------|
B|----------0------------0--------1---0--------------------------------|
G|------1------------1--------2-----------2---0------------------------|
D|--2------------2--------------------------------3--------------------|
A|---------------------------------------------------------------------|
E|---------------------------------------------------------------------|


e|----0---0------0---0-------0---0------0---0---------------------------|
B|----------0--3---0----3--1-------1--0-------0-------------------------|
G|------1----------------------2----------0-----------------------------|
D|--2-------------------------------------------------------------------|
A|----------------------------------------------------------------------|
E|----------------------------------------------------------------------|


e|---0---0---0---0---0---0---0---0---0---0---0---0---0---0---0---0---0--|
B|-----1---0------------------------------------------------------------|
G|-2-----------2---0----------------------------------------------------|
D|---------------------3---2---3---2---0---------------2----------------|
A|-----------------------------------------3---2---0-------3---2---0----|
E|----------------------------------------------------------------------|

         OLE ! (MUST BE SINGED HERE , VERY IMPORTANT!!)
e|--0------------------------------------------------------------------|
B|--0------------------------------------------------------------------|
G|--1------------------------------------------------------------------|
D|--2------------------------------------------------------------------|
A|---------------------------------------------------------------------|
E|---------------------------------------------------------------------|
Suggest correction
comments
print report bad tab
3 comments total.
0 reply
eltonjohn69 10 Mar 07, 2007 08:45 AM

hmmm

+4 reply
R8:31b 1,731 Sep 30, 2008 09:31 PM

singed?

+1 reply
btimmer313 30 Sep 17, 2013 01:32 PM

OLE! nice tab

guest
You may want to rate the tab now too:
select rating
Wanna post a correction for this tab? Suggest correction