Oops, an error
Loading. Please wait.

Sean South From Garryowen ukulele

241 views 3 this week
no commentswrite comment
1 2 3 4 5
3 more votes to show rating
add to favorites
×
Save as Personal and add changes to this tab that will be seen only by you. Learn more ›
×
You can save this tab as Personal to edit and correct it or add notes. All changes will be seen only by you. Learn more »
launch autoscroll
font size
0
reset
transpose
0
reset
simplify chords
display chords
guitar tuner
edit
Autoscroll
slow
fast
+/-
esc
set tempo
stop
Author
Difficulty
Unregistered
Strumming
There is no strumming pattern for this song yet. and get +5 IQ
Soken: 
Sad are the homes around Garryowen, since they lost their gal land pride,
but the banshee cry, rings every vale along the Shannon side, that city of the 
ancient walls, the broken treaty stone, on dying fame surrounds your name Sean 
South From Garryowen.
 
       G                                 Cmaj                G
It was on a dreary new year's eve as the shades of night came down,
                 Cmaj     G/F# Em     Cmaj  Am7 D  
A lorry load of volunteers approched the border town,
E/F#/G                    Cmaj     G/F# Em       Cmaj Am7 D
There was men from Dublin and from Cork,Fermanagh and Tyrone,
E/F#/G                              Cmaj                 G
And their leader was a Limerick man Sean South from Garryowen

G                                      Cmaj           G
And as they moved along the streets up to the barrack door,
                        Cmaj         G  G/F# Em       Cmaj Am7 D
They scorned the danger they might face,the fate that lay in store,
E/F#/G                     Cmaj    G/F# Em       Cmaj Am7 D
They were fighting for old Ireland,to claim their very own,
E/F#/G                                    Cmaj            G
And the foremost of that gallant band was South from Garryowen.

G                                           Cmaj                   G
But the sergent foiled their daring plan,he spied them through the door,
                           Cmaj    G/F# Em   Cmaj Am7 D
Then the Sten guns and the rifles a hail of death did pour,
E/F#/G                     Cmaj    G/F# Em       Cmaj Am7 D
And when that auful night was past,two men lay as cold as stone,
E/F#/G                                 Cmaj          G
There was one from near the border,and one from Garryowen.

G                                  Cmaj                       G
No more he'll hear the seagull cry o're the murmuring Shannon tide,
                      Cmaj         G/F# Em       Cmaj Am7 D
For he fell beneath a Northern sky,brave Hanlon by his side,
E/F#/G                       Cmaj           G/F# Em  Cmaj Am7 D
They have gone to join that gallant band of Plunkett Pearse and Tone,
E/F#/G                        Cmaj           G
A martyr for old Ireland,Sean South from Garryowen 


The G/F# Em lick:
e|---------0------------------------------------------------------------------|
B|---------0------------------------------------------------------------------|
G|---------0------------------------------------------------------------------|
D|---------2------------------------------------------------------------------|
A|---------2------------------------------------------------------------------|
E|---3--2--0------------------------------------------------------------------|

The Cmaj Am7 D Lick
e|---0-----3-------------------------------------------------------------------|
B|---1-----2-------------------------------------------------------------------|
G|---0-----3-------------------------------------------------------------------|
D|---2-----0-------------------------------------------------------------------|
A|---3--2----------------------------------------------------------------------|
E|---0-------------------------------------------------------------------------|

The E/F#/G Lick
e|---------3------------------------------------------------------------------|
B|---------0------------------------------------------------------------------|
G|---------0------------------------------------------------------------------|
D|---------0------------------------------------------------------------------|
A|---------2------------------------------------------------------------------|
E|---0--2--3------------------------------------------------------------------|
Suggest correction
Creating personal tab
Creating personal tab
You can edit any tab online and save it as your Personal.

You can edit, replace or remove any tab part or add personal notes – all changes will be seen only by you.

Personal tabs can be accessed anytime from any device, even offline.
Learn more »
Give kudos to tab author, rate the tab!
1 2 3 4 5
comments
print report bad tab
guest
Wanna post a correction for this tab? Suggest correction