Oops, an error
Loading. Please wait.

Silent Night Bass Tab

version 1
version 1

Whole song

  • This is the bass version of the melody. It is a little simpler to play.

Interactive

19 views 9 this week
no commentswrite comment
1 2 3 4 5
2 more votes to show rating
add to favorites
launch autoscroll
font size
0
reset
guitar tuner
Autoscroll
slow
fast
+/-
esc
set tempo
stop
Help us to improve Ultimate-Guitar.com Take our survey!
×
Author
Difficulty
intermediate
About this tab version
This is the bass version of the melody. It is a little simpler to play. Was this info helpful? Yes No
Silent Night - Traditional 
Music by Franz Gruber

bpm:60

6/8

Intro

G|-----------------------------------|------------------------------------|
D|5--------7--5----------------------|5--------7--5-----------------------|
A|------------------7----------------|------------------7-----------------|
E|-----------------------------------|------------------------------------|
  1  +  2  +  3  +  4  +  5  +  6  +  1  +  2  +  3  +  4  +  5  +  6  +

G|7-----------7-----4----------------|5-----------5-----------------------|
D|-----------------------------------|------------------5-----------------|
A|-----------------------------------|------------------------------------|
E|-----------------------------------|------------------------------------|
  1  +  2  +  3  +  4  +  5  +  6  +  1  +  2  +  3  +  4  +  5  +  6  +


G|------------------5--------4-------|------------------------------------|
D|7-----------7-----------------7----|5--------7--5-----------------------|
A|-----------------------------------|------------------7-----------------|
E|-----------------------------------|------------------------------------|
  1  +  2  +  3  +  4  +  5  +  6  +  1  +  2  +  3  +  4  +  5  +  6  +

G|------------------5--------4-------|------------------------------------|
D|7-----------7-----------------7----|5--------7--5-----------------------|
A|-----------------------------------|------------------7-----------------|
E|-----------------------------------|------------------------------------|
  1  +  2  +  3  +  4  +  5  +  6  +  1  +  2  +  3  +  4  +  5  +  6  +


G|7-----------7-----10-------7-------|------------------9-----------------|
D|------------------------------9----|10----------------------------------|
A|-----------------------------------|------------------------------------|
E|-----------------------------------|------------------------------------|
  1  +  2  +  3  +  4  +  5  +  6  +  1  +  2  +  3  +  4  +  5  +  6  +

G|---------------------------10------|------------------------------------|
D|10----------------------------7----|10----------------------------------|
A|---------10-7-----10---------------|------------------------------------|
E|-----------------------------------|------------------------------------|
  1  +  2  +  3  +  4  +  5  +  6  +  1  +  2  +  3  +  4  +  5  +  6  +

************************************

| x   Dead note
| g   Grace note
| (n) Ghost note
| h   Hammer-on
| p   Pull-off
| r   Release
| >   Accented note
| t   Tapping
| b   Bend
| br  Bend release
| pb  Pre-bend
| pbr Pre-bend release
| /   Slide up
| \   Slide down
| ~   Vibrato
| s   Slap
| P   Pop
| PM  Palm mute
| TR  Trill
| N   Tremolo

************************************
Suggest correction
Give kudos to tab author, rate the tab!
1 2 3 4 5
comments
print report bad tab
guest
You may want to rate the tab now too:
select rating
Wanna post a correction for this tab? Suggest correction