Oops, an error
Loading. Please wait.

Spanish Guitar - Besame Mucho intro tab

1,603 views 24 this week
1 commentread comment
1 2 3 4 5
x 6
add to favorites
×
Save as Personal and add changes to this tab that will be seen only by you. Learn more ›
×
You can save this tab as Personal to edit and correct it or add notes. All changes will be seen only by you. Learn more »
launch autoscroll
font size
0
reset
how to read this tab
guitar tuner
edit
Autoscroll
slow
fast
+/-
esc
set tempo
stop
Author
Besame Mucho – Spanish Guitar (artist is 'Spanish Guitar')

[Intro] (4 bars of chords and then…)

e|------------------------------------------------0------|
B|--------------------------------------------2-3--------|
G|---------------2---0------0-0-0-2-2-2-3-3-3-------2----|
D|-0-0-0---0-2-3-----------------------------------------|
A|-------------------------------------------------------|
E|-------------------------------------------------------|

e|---------------------------------------------------------|
b|-/3-3---3-3-1------------3-------------------------------|
G|--------------3-2-320------2---2-------------------------|
D|-----------------------------3---3-0---3-2-0-2---0-------|
A|---------------------------------------------------4-4/5-|
E|---------------------------------------------------------|

e|---------------------------------------------------------|
B|----------5-6-/8-8-8-8-6-5-6-6-6---6-6p5--5-5-5-5-6-8-/10|
G|---------7------------------------------7----------------|
D|-------7-------------------------------------------------|
A|-5-7-8---------------------------------------------------|
E|---------------------------------------------------------|

e|---------------------------------------------------------|
B|-8h10---8-8-8-8-6-5-6-6-6-6-5---5-5-5-5-6-8-5------------|
G|------------------------------7--------------------------|
D|---------------------------------------------------------|
A|---------------------------------------------------------|
E|---------------------------------------------------------|

e|-----------------------------------------------------------|
B|----------------10-8p7h8--8-8-8-10-10-10-11-11-11----------|
G|7-7-7---7-9-10---------------------------------------------|
D|-----------------------------------------------------------|
A|-----------------------------------------------------------|
E|-----------------------------------------------------------|

e|-9-10-12--------------/10-10-10--10-10-8-------------------|
B|---------10—----------------------------11-10--8---------|
G|------------(12-10-9)--------------------------------------|
D|-----------------------------------------------------------|
A|-----------------------------------------------------------|
E|-----------------------------------------------------------|

e|-10-------------------------------------|
B|----10----10----------------------------|
G|-------10----10---10-9-7-9----7-6-7-----|
D|---------------12-----------------------|
A|----------------------------------------|
E|----------------------------------------|

************************************

| h  Hammer-on
| p  Pull-off
| /  Slide up

************************************

Strumming Accompaniment
Capo 5

Am      Bb       Am      Am

[With solo guitar]

Am          Am          Dm          Dm          Dm          Dm  –  E          Am
   Am
A           A           Dm          Dm          Am          Dm  –  E          Am
   Am

________________________________________
For Ashley and Jordyn at Laugh and Learn

            
            
Suggest correction
Creating personal tab
Creating personal tab
You can edit any tab online and save it as your Personal.

You can edit, replace or remove any tab part or add personal notes – all changes will be seen only by you.

Personal tabs can be accessed anytime from any device, even offline.
Learn more »
comments
print report bad tab
1 comment total.
0 reply
HE.98 10 Apr 13, 2017 09:02 PM

Beautiful song!

guest
You may want to rate the tab now too:
select rating
Wanna post a correction for this tab? Suggest correction