Oops, an error
Loading. Please wait.

Swedish National Anthem - Du Gamla Du Fria Tab

version 3
version 3

Whole song

Interactive

3,643 views 15 this week
no commentswrite comment
1 2 3 4 5
x 3
add to favorites
launch autoscroll
font size
0
reset
how to read this tab
guitar tuner
×
Best way to learn
"Swedish National Anthem - Du Gamla Du Fria"
Autoscroll
slow
fast
+/-
esc
set tempo
stop
Author
Tuning
E A D G B E
Tabbed by: Calle Kabo
Email: kabo@macnytt.com

My First Tab! :)


Tuning: Standard

e|--------------------------------------------------------|
B|--------------------------------------------------------|
G|-4-4--0-0-0--2-4-4--2-0------2-2-----0-2---4--0---------|
D|-------------------------4---------4-----4------2--0----|
A|--------------------------------------------------------|
E|--------------------------------------------------------|

e|--------------------------------------------------------|
B|--------------------------------------------------------|
G|---0--0-2-----0-----------------0---0-2-4-0-5-4-2-0-----|
D|-0--------4-4---2-0-2-4-0----0----4---------------------|
A|--------------------------------------------------------|
E|--------------------------------------------------------|

e|--------------------------------------------------------|
B|--------------------------------------------------------|
G|---0---0-2-4-0-5----4-2---0-----------------------------|
D|-0---4--------------------------------------------------| x2
A|--------------------------------------------------------|
E|--------------------------------------------------------|
Suggest correction
Give kudos to tab author, rate the tab!
1 2 3 4 5
comments
print report bad tab
guest
You may want to rate the tab now too:
select rating
Wanna post a correction for this tab? Suggest correction