Oops, an error
Loading. Please wait.

Taps Tab

version 1
version 1

Whole song

  • This tab is a half step higher and sounds better with the trumpets.
2,200 views 48 this week
no commentswrite comment
1 2 3 4 5
x 3
add to favorites
launch autoscroll
font size
0
reset
how to read this tab
guitar tuner
Autoscroll
slow
fast
+/-
esc
set tempo
stop
Author
-------------------------------------------------------------------------------
Taps
--------------------------------------------------------------------------------
Tabbed by:senojnaes
Email:somedude60@yahoo.com

Tuning:standard

e|---------------------------------------------------------------------------|
B|---------------------------------------------------------------------------|
G|---------------------------------------------------------------------------|
D|--------0-------0--4-------0--4---0--4-----0--4----------------------------|
A|--0--0-------0----------0-------0-------0----------------------------------|
E|---------------------------------------------------------------------------|

e|---------------------------------------------------------------------------|
B|---------------------------------------------------------------------------|
G|----------2----------------------------------------------------------------|
D|---0--4------4---0---------------------------------------------------------|
A|----------------------0-0--------------------------------------------------|
E|---------------------------------------------------------------------------|
Suggest correction
Give kudos to tab author, rate the tab!
1 2 3 4 5
comments
print report bad tab
guest
You may want to rate the tab now too:
select rating
Wanna post a correction for this tab? Suggest correction