Oops, an error
Loading. Please wait.

The Star-Spangled Banner Tab

version 29
version 29

Whole song

10,122 views 36 this week
no commentswrite comment
1 2 3 4 5
1 last vote to show rating
add to favorites
×
Save as Personal and add changes to this tab that will be seen only by you. Learn more ›
launch autoscroll
font size
0
reset
how to read this tab
guitar tuner
Autoscroll
slow
fast
+/-
esc
set tempo
stop
This is my version of the tab for the national anthem
Tabbed by CJMasta

(the stuff in parenthesis is optional)
X = don't play that string

play this twice
|-------------------2--0--------------------2--0----------------------------|
|----------------3--------3-----------------------3--2--0--2--3--3----------|
|-2-----------2-----------------1--2--2--2--------------------------2-------|
|----4--0--4-----------------4-----------------------------------------4--0-|
|---------------------------------------------------------------------------|
|---------------------------------------------------------------------------|
oh say can you see...

|-2--2--2--3--5--5----3--2--0--2--3--3----3--2--0---------------------------|
|--------------------------------------------------3--2--0--2--3------------|
|--------------------------------------------------------------------1--2---|
|-----------------------------------------------------------------4---------|
|---------------------------------------------------------------------------|
|---------------------------------------------------------------------------|
and the rockets...
|-------------------------0--3--2--0---------------------0--2--3--5(/10-10-|
|----3--3--3-2-0--0--0--0------------3--3--2----------3--------------------|
|-2---------------------------------------------2--2-----------------------|
|--------------------------------------------------------------------------|
|--------------------------------------------------------------------------|
|--------------------------------------------------------------------------|
oh say does that star...
|----0--2--3--0--2--|
|-3--------------3--|
|----------------2--|
|----------------0--|
|----------------0--|
|----------------X--|
and the home of the brave.
Suggest correction
Give kudos to tab author, rate the tab!
1 2 3 4 5
comments
print report bad tab
guest
You may want to rate the tab now too:
select rating
Wanna post a correction for this tab? Suggest correction