Oops, an error
Loading. Please wait.

The Star-Spangled Banner Tab

version 41
version 41

Whole song

5,370 views 468 this week
2 commentsread comments
1 2 3 4 5
x 20
add to favorites
×
Save as Personal and add changes to this tab that will be seen only by you. Learn more ›
launch autoscroll
font size
0
reset
how to read this tab
guitar tuner
Autoscroll
slow
fast
+/-
esc
set tempo
stop
Author
-------------------------------------------------------------------------------
                             Star Spangled Banner - America
-------------------------------------------------------------------------------
Tabbed by: iAreGuitar

Hi everybody this is my first post so please comment/rate and let me know what you think! :)

Play this part x2
e|-0------0--5--9--7--5--------------9--7--5--4--2--4--5-5--0----------------|
B|--2---2--------------2--4--5--5-5---------------------------2--------------|
G|----2--------------------------------------------------------2-------------|
D|---------------------------------------------------------------------------|
A|---------------------------------------------------------------------------|
E|---------------------------------------------------------------------------|

e|-9--9--9--10--12--12--10--9--7--9--10--10--10--9--7--5--4--2--4--5---------|
B|-------------------------------------------------------------------2--4--5-|
G|---------------------------------------------------------------------------|
D|---------------------------------------------------------------------------|
A|---------------------------------------------------------------------------|
E|---------------------------------------------------------------------------|

e|-0--4--5--5--5--4--2--2--2--7--10--9--7--5--5--4---------------------------|
B|---------------------------------------------------------------------------|
G|---------------------------------------------------------------------------|
D|---------------------------------------------------------------------------|
A|---------------------------------------------------------------------------|
E|---------------------------------------------------------------------------|

e|-0--4--5--7--9--10--12--5--7--9--10--7--5----------------------------------|
B|---------------------------------------------------------------------------|
G|---------------------------------------------------------------------------|
D|---------------------------------------------------------------------------|
A|---------------------------------------------------------------------------|
E|---------------------------------------------------------------------------|

That's it! Hope you liked it!
Suggest correction
comments
print report bad tab
2 comments total.
+1 reply
iAreGuitar 54 Apr 05, 2015 07:26 PM

Hi, its me. I REALLLLLLLLLLYYYYYY want u guys to give me ur feedback, so that I know what to change if I have to. Thx, Anna

0 reply
mcarol 10 Jul 02, 2016 02:05 PM

Awesome and simple. Please fix all the other tabs on Ultimate try to tab.com!!!!

guest
You may want to rate the tab now too:
select rating
Wanna post a correction for this tab? Suggest correction