Oops, an error
Loading. Please wait.

Tom Dooley Tab

3,339 views 1 this week
no commentswrite comment
1 2 3 4 5
please rate
add to favorites
launch autoscroll
font size
0
reset
how to read this tab
guitar tuner
Autoscroll
slow
fast
+/-
esc
set tempo
stop
Help us to improve Ultimate-Guitar.com Take our survey!
×
Author
Ok this is Tom Dooley for one Guitar ... easy working ...
Standart Tuning (E,A,D,G,H(B),E) Key is C Major... But it is variable 

4/4-Time

    G         C         G         G7
E||---------|---------|---------|-----1---||
H||---------|---1---1-|---------|-----0---||
G||----0----|---0---0-|----0----|---0---0-||
D||---------|-2---2---|---------|-0-------||
A||-----0-3-|---------|-----0-3-|---------||
E||-3-3-----|---------|-3-3-----|---------||
    1 2 3 4   1 2 3 4   1 2 3 4   1 2 3 4


    G         G7        G         C
E||---------|---1---1-|---------|-----0---||
H||---------|---0---0-|---------|-----1---||
G||----0----|---0---0-|----0----|---2---2-||
D||---------|-0---0---|-0-0-----|---------||
A||-----0-3-|---------|-----3-0-|-3-------||
E||-3-3-----|---------|---------|---------||
    1 2 3 4   1 2 3 4   1 2 3 4   1 2 3 4


    G         C         G         G7
E||---------|---3---3-|---------|-----1---||
H||---------|---1---1-|---------|-----0---||
G||----0-0--|---0---0-|----0-0--|---0---0-||
D||---------|-2---2---|---------|-0-------||
A||-----0-3-|---------|-----0-3-|---------||
E||-3-3-----|---------|-3-3-----|---------||
    1 2 3 4   1 2 3 4   1 2 3 4   1 2 3 4

    G         G7        G         C
E||---------|---1---1-|---------|-----0---||
H||---------|---0---0-|---------|-----1---||
G||----0----|---0---0-|----0----|---2-----||
D||---------|-0---0---|-0-0-----|---------||
A||-----0-3-|---------|-----3-0-|-3-------||
E||-3-3-----|---------|---------|---------||
    1 2 3 4   1 2 3 4   1 2 3 4   1 2 3 4

That was it... if you have Questions and Corections please 
mail me at knopf-im-ohr@web.de
Suggest correction
Give kudos to tab author, rate the tab!
1 2 3 4 5
comments
print report bad tab
guest
You may want to rate the tab now too:
select rating
Wanna post a correction for this tab? Suggest correction