Oops, an error
Loading. Please wait.

Turkey In The Straw Tab

version 1
version 1

Whole song

Interactive

20,287 views 33 this week
no commentswrite comment
1 2 3 4 5
x 3
add to favorites
launch autoscroll
font size
0
reset
how to read this tab
guitar tuner
×
Best way to learn
"Turkey In The Straw"
Autoscroll
slow
fast
+/-
esc
set tempo
stop
Turkey in the straw

Transcribed by K Woodgate

Easy melody Version

e||-----|-----------------|-----------|---------------------|
B||-0---|-----------------|-----------|---0-0-0-------0-----|
G||---2-|-0---0-2-0-------|---------0-|-2-------2-0-2---0-0-|
D||-----|---4-----------0-|-4-0---0---|---------------------|
A||-----|-----------2/3---|-----2-----|---------------------|
E||-----|-----------------|-----------|---------------------|

e|-----|-----------------|-----------|-----------------------||
B|-0---|-----------------|-----------|---0-3-3-0-----0-------||
G|---2-|-0---0-2-0-------|---------0-|-2---------0-2---2-0--o||
D|-----|---4-----------0-|-4-0---0---|----------------------o||
A|-----|-----------2/3---|-----2-----|-----------------------||
E|-----|-----------------|-----------|-----------------------||

e||-------------------|---0---0-0---0---0-|---0-2-3-3-----|
B||-0-3-0-3-3-0-3-0-3-|-2---2-----2---2---|-3---------3-3-|
G||-------------------|-------------------|---------------|
D||-------------------|-------------------|---------------|
A||-------------------|-------------------|---------------|
E||-------------------|-------------------|---------------|

e|-----------|---------------|-------------||
B|-0-3-0-----|---------0-----|-----0-------||
G|-------0---|-----0-3---3-0-|-0-2---2-0--o||
D|---------2-|-0-2-----------|------------o||
A|-----------|---------------|-------------||
E|-----------|---------------|-------------||

************************************

| /  Slide up

************************************
Suggest correction
Give kudos to tab author, rate the tab!
1 2 3 4 5
comments
print report bad tab
guest
You may want to rate the tab now too:
select rating
Wanna post a correction for this tab? Suggest correction