Oops, an error
Loading. Please wait.

Victory Rag Tab

version 1
version 1

Whole song

Interactive

4,581 views 1 this week
no commentswrite comment
1 2 3 4 5
please rate
add to favorites
launch autoscroll
font size
0
reset
how to read this tab
guitar tuner
Autoscroll
slow
fast
+/-
esc
set tempo
stop
Help us to improve Ultimate-Guitar.com Take our survey!
×
Contributor
Tabbers playing skills
advanced
                                  VICTORY RAG                                   


                                                                     James Scott
Guitar

Tabbed by salmon philippe
This Tab is also available in guitar pro 5
and i made a copy for guitar tab to make it easy for everyone....

                            C                        E7                       
     Q    Q    Q    Q       E  E  E  E  Q    Q       E   E  E  E  E  E  Q     
E||----------------------|--0--------3------------|------------0-------------|
B||-------0----1----3----|-----1------------------|------------------3-------|
G||----------------------|------------------------|--0h--1-------------------|
D||----------------------|--------2----------2----|---------2-----------2----|
A||------------0----2----|--3---------------------|--------------------------|
E||-------3--------------|--------------3---------|--0------------0----------|


  F                          C                         D9                      
  E  E  E  E   E  E  Q       E  E  E  E  E  E  Q       E  E  E  E  E  E  Q     
--------------------------|-----------0-------------|-----------0-------------|
--1--------3p--1----------|--1--------------1-------|--3--------------3-------|
-----2------------2-------|-----0-------------------|-----5-------------------|
--------3------------3----|--------2-----------2----|--------4-----------4----|
--------------------------|--3-----------3----------|--5-----------5----------|
--1------------1----------|-------------------------|-------------------------|


  G                         C           F              C                    
  E  E  E  E  E  E  Q       Q    E  E   E  E  E  E     Q    Q    Q    Q     
-----------3-----0-------|--------------------------|----------------------|
--3----------------------|--1--------------1--------|--1----0----1----3----|
-----0-------------------|----------0h--2--------0--|----------------------|
--------0-----------0----|-------2------------3-----|----------------------|
-------------------------|--3-----------------------|--3---------0----2----|
--3-----------3----------|--------------1-----------|-------3--------------|


  C                        E7                         F                        
  E  E  E  E  Q    Q       E   E  E  E  E  E  Q       E  E  E  E   E  E  Q     
--0--------3------------|------------0-------------|--------------------------|
-----1------------------|------------------3-------|--1--------3p--1----------|
------------------------|--0h--1-------------------|-----2------------2-------|
--------2----------2----|---------2-----------2----|--------3------------3----|
--3-----------3---------|--------------------------|--------------------------|
------------------------|--0------------0----------|--1------------1----------|


  C                         D9                        G                       
  E  E  E  E  E  E  Q       E  E  E  E  E  E  Q       E  E  E  E  E  E  Q     
-----------0-------------|-----------0-------------|-----------3-----0-------|
--1--------------1-------|--3--------------3-------|--3----------------------|
-----0-------------------|-----5-------------------|-----0-------------------|
--------2-----------2----|--------4-----------4----|--------0-----------0----|
--3-----------3----------|--5-----------5----------|-------------------------|
-------------------------|-------------------------|--3-----------3----------|


  C           F                                     E7                     
  Q    E  E   E  E  Q       Q    Q    E  E  Q       Q    E  E  E  E  Q     
-------------------------|-----------------------|-------7--------7-------|
--1--------------1-------|--1--------------------|----------0-------------|
----------0h--2----------|---------------0-------|------------------------|
-------2------------3----|-------2----------2----|-------6-----------6----|
--3----------------------|--3--------------------|-------------7----------|
--------------1----------|------------3----------|--0---------------------|


  E7add13-                        A5                        
  E        E  E  E  E  E  Q       E  E  E  E   E  E  E  E   
--8--------------7-------------|--5--------3p--2-----------|
-----------0-----------0-------|-----2------------5--------|
-------------------------------|------------------------2--|
--------------6-----------6----|--------2------------2-----|
--------------------7----------|--0------------------------|
--0----------------------------|---------------0-----------|


                          D9                                               
  Q    Q    E  E  Q       Q    E  E  E  E  Q       E  E  E  E  E  E  Q     
-----------------------|----------------0-------|--5--------0-------------|
---------------2-------|----------7-------------|-----7-----------7-------|
-----------------------|-------5-----------5----|--------5-----------5----|
-------2----------2----|--0---------------------|--0----------------------|
--0--------------------|-------------0----------|--------------0----------|
------------0----------|------------------------|-------------------------|


  G                                                    E7                     
  E  E  E  E   E  E  E  E     Q    Q    E  E  E  E     Q    E  E  E  E  Q     
--3--------1p--0-----------|------------------------|-------7--------7-------|
-----0------------3--------|-------0-------0--------|----------0-------------|
------------------------0--|---------------------0--|------------------------|
--------0------------0-----|-------0----------0-----|-------6-----------6----|
---------------------------|------------------------|-------------7----------|
--3------------------------|--3---------3-----------|--0---------------------|


  E7add13-                        A5                        
  E        E  E  E  E  E  Q       E  E  E  E   E  E  E  E   
--8--------------7-------------|--5--------3p--2-----------|
-----------0-----------0-------|-----2------------5--------|
-------------------------------|------------------------2--|
--------------6-----------6----|--------2------------2-----|
--------------------7----------|--0------------------------|
--0----------------------------|---------------0-----------|


                          D9                                                
  Q    Q    E  E  Q       Q    E  E  E  E  E  E     E  E  E  E  E  E  Q     
-----------------------|----------------0--------|--5--------0-------------|
---------------2-------|----------7-----------7--|-----7-----------7-------|
-----------------------|-------5-----------5-----|--------5-----------5----|
-------2----------2----|--0----------------------|--0----------------------|
--0--------------------|-------------0-----------|--------------0----------|
------------0----------|-------------------------|-------------------------|


  G                                                  C                      
  E  E  E  E   E  E  E  E     Q    Q    Q    Q       E  E  E  E  Q    Q     
--3--------1p--0-----------|----------------------|--0--------3------------|
-----0------------3--------|-------0----1----3----|-----1------------------|
------------------------0--|--L-------------------|------------------------|
--------0------------0-----|----------------------|--------2----------2----|
---------------------------|------------0----2----|--3---------------------|
--3------------------------|--3----3--------------|--------------3---------|


  E7                         F                          C                       
  E   E  E  E  E  E  Q       E  E  E  E   E  E  Q       E  E  E  E  E  E  Q     
------------0-------------|--------------------------|-----------0-------------|
------------------3-------|--1--------3p--1----------|--1--------------1-------|
--0h--1-------------------|-----2------------2-------|-----0-------------------|
---------2-----------2----|--------3------------3----|--------2-----------2----|
--------------------------|--------------------------|--3-----------3----------|
--0------------0----------|--1------------1----------|-------------------------|


  D9                        G                         C           F            
  E  E  E  E  E  E  Q       E  E  E  E  E  E  Q       Q    E  E   E  E  E  E   
-----------0-------------|-----------3-----0-------|--------------------------|
--3--------------3-------|--3----------------------|--1--------------1--------|
-----5-------------------|-----0-------------------|----------0h--2--------0--|
--------4-----------4----|--------0-----------0----|-------2------------3-----|
--5-----------5----------|-------------------------|--3-----------------------|
-------------------------|--3-----------3----------|--------------1-----------|


  C                   
  H.           Q      
--------------------||
--1-----------------||
--0-----------------||
--2-----------------||
--3-----------------||
--------------------||




Duration Legend
---------------
W - whole
H - half
Q - quarter
E - 8th
S - 16th
T - 32nd
X - 64th
. - note dotted
|-n-|  - n-tuplets


Tablature Legend
----------------
L - tied note
x - dead note
g - grace note
(n) - ghost note
> - accentuded note
NH - natural harmonic
AH - artificial harmonic
TH - tapped harmonic
SH - semi harmonic
PH - pitch harmonic
h - hammer on
p - pull off
b - bend
br - bendRelease
pb - preBend
pbr - preBendRelease
brb - bendReleaseBend
\n/ - tremolo bar dip
\n - tremolo bar dive
-/n - tremolo bar Release up
/n\ - tremolo bar inverted dip
/n - tremolo bar return
-\n - tremolo bar Release down
S - shift slide
s - legato slide
/ -  slide into from below or out of upwards
\ -  slide into from above or out of downwards
~ - vibrato
W - wide vibrato
tr - trill
TP - tremolo picking
T - tapping
S - slap
P - pop
< - fade in
^ - brush up
v - brush down
comments
We did not receive enough feedback on this tab! Please rate:
print report bad tab
1 2 3 4 5
I want to post or [tab]
guest
You may want to rate the tab now too:
select rating
Please do not post tabs as comments. Select "correction" instead!