Oops, an error
Loading. Please wait.

Whiskey In The Jar tab

version 1
version 1

Whole song

Interactive

6,471 views 3 this week
7 commentsread comments
1 2 3 4 5
x 5
add to favorites
×
Save as Personal and add changes to this tab that will be seen only by you. Learn more ›
×
You can save this tab as Personal to edit and correct it or add notes. All changes will be seen only by you. Learn more »
launch autoscroll
font size
0
reset
how to read this tab
guitar tuner
edit
Autoscroll
slow
fast
+/-
esc
set tempo
stop
Whiskey in the jar

[Verse]
e|--------------------------------------------|
B|--------------------------------------------|
G|-------2-------2-2-4-2-----2-2-2-4-5-5-4-2--|
D|2-5-5-5-5-2-2-5-------2-2-5---------------5-|
A|--------------------------------------------|
E|--------------------------------------------|

e|-------------------------------------------|
B|-------------------------------------------|
G|-5-4-2-----------2-------2-2-2-4-2-----2-2-|
D|5-----2-2-2-5-5-5-5-2-2-5---------2-2-5----|
A|-------------------------------------------|
E|-------------------------------------------|

e|-------------------------------------------|
B|-------------------------------------------|
G|2-4-5-5-4-2---5-4-2------------------------|
D|-----------2-2-----5-----------------------|
A|-------------------------------------------|
E|-------------------------------------------|

[Chorus]
e|--------------------------------------------|
B|--------------------------------------------|
G|------------------------------2-2-2-4-5-5-2-|
D|2-0-0-0-0-2-0--2-2-2-2-3-5-5-----5----------|
A|-3------------------------------------------|
E|--------------------------------------------|

e|-------------------------------------------|
B|-------------------------------------------|
G|-------------------------------------------|
D|5-2----------------------------------------|
A|---5-5-3-3---------------------------------|
E|-------------------------------------------|
Suggest correction
Creating personal tab
Creating personal tab
You can edit any tab online and save it as your Personal.

You can edit, replace or remove any tab part or add personal notes – all changes will be seen only by you.

Personal tabs can be accessed anytime from any device, even offline.
Learn more »
comments
print report bad tab
7 comments total. Showing first comments.
0 reply
ironman4 10 May 08, 2004 08:00 PM

hello fjordevik

0 reply
fjordevik 30 Nov 01, 2004 07:00 PM

hello ironman4

0 reply
RHCP_25 20 May 19, 2006 11:48 AM

ok this is crap

guest
You may want to rate the tab now too:
select rating
Wanna post a correction for this tab? Suggest correction