Oops, an error
Loading. Please wait.

Yankee Doodle Dandy Bass Tab

4,107 views 1 this week
1 commentread comment
1 2 3 4 5
x 7
add to favorites
launch autoscroll
font size
0
reset
guitar tuner
×
Best way to learn
"Yankee Doodle Dandy"
Autoscroll
slow
fast
+/-
esc
set tempo
stop
its just the basics but its good enough
you can finger out the rest

G--0-0-2-4-0-4-2---0-0-2-4-0----
D-0--------------0-----------4--
A-------------------------------
E-------------------------------

G-0-0-2-4-5-4-2-----------0__0__
D---------------4-2-0-2-4-------
A-------------------------------
E-------------------------------

G-----------------------------
D-2-4-2-0-2-4-5---0-2-0-4-2-1_
A-----------------------------
E-----------------------------

G---------------------0-2-0-0-
D-2-4-2-0-2-4-5-0-2-4---------
A-----------------------------
E-----------------------------
Suggest correction
comments
print report bad tab
1 comment total.
0 reply
josephbussell 10 May 26, 2013 08:50 AM

This is a correction.
Notes are right, timing is god awful but hey, everyone knows the tune.
Personally I liked the old tab ( I've just changed 2 notes and taken 1 out)

G--0-0-2-4-0-4-2---0-0-2-4-0----
D-0--------------0-----------4--
A-------------------------------
E-------------------------------

G-0-0-2-4-5-4-2-----------0__0__
D---------------4-2-0-2-4-------
A-------------------------------
E-------------------------------

G-----------------------------
D-2-4-2-0-2-4-5---0-2-0-------
A------------------------3-2--
E-----------------------------

G---------------------0-2-0-0-
D-2-4-2-0-2-4-5-0-2-4---------
A-----------------------------
E-----------------------------

guest
You may want to rate the tab now too:
select rating
Wanna post a correction for this tab? Suggest correction