Oops, an error
Loading. Please wait.

00Geetar00 - To Davidmeshow Tab

3,560 views 1 this week
no commentswrite comment
1 2 3 4 5
2 more votes to show rating
add to favorites
launch autoscroll
font size
0
reset
how to read this tab
guitar tuner
Autoscroll
slow
fast
+/-
esc
set tempo
stop
Help us to improve Ultimate-Guitar.com Take our survey!
×
. = palm mute
* = pinch harmonic
x = mute string
h = hammer-on
/ = slide to next note
~ = wiggle note

(I put "up" and "down" stroke keys in there as a guide.  But you can strum it however 
most natural for you, don't let it confuse you.)

v = down stroke/strum
^ = up stroke/strum

   v  v v v  ^ ^ v ^  v   v v v v ^  v ^ v ^ v ^
|------------------------------------------------|
|------------------------------------------------|
|---------7-----------9*~~4-----7-4--------------|
|--9------7--7-7-7-7------x-----x-x--2-2-2-4-4-4-|
|--9------0--7-7-7-7------5-5-5-5-5--2-2-2-4-4-4-|
|--7--7-7----5-5-5-5------3-3-3-3-3--0-0-0-2-2-2-|
      . .                   . .

  v ^   v    ^ ^ v ^ v ^    v v v v ^  ^ v ^ v ^ v
|--------------------------------------------------|
|--------------------------------------------------|
|-------7h9--6-6-6-6-6~2/-4-4-----7-4--------------|
|-9-7h9------7-7-7-7--------x-----x-x--2-2-2-4-4-4-|
|-9----------7-7-7-7--------5-5-5-5-5--2-2-2-4-4-4-|
|-7----------5-5-5-5--------3-3-3-3-3--0-0-0-2-2-2-|
                              . .
Suggest correction
Give kudos to tab author, rate the tab!
1 2 3 4 5
comments
print report bad tab
guest
You may want to rate the tab now too:
select rating
Wanna post a correction for this tab? Suggest correction