Oops, an error
Loading. Please wait.

16 Droenz - Damn Tab

128 views 1 this week
no commentswrite comment
1 2 3 4 5
please rate
add to favorites
launch autoscroll
font size
0
reset
how to read this tab
guitar tuner
Autoscroll
slow
fast
+/-
esc
set tempo
stop
Help us to improve Ultimate-Guitar.com Take our survey!
×
Author
16 Droenz
“Damn”
D-A-D-G-B-E
(http://www.myspace.com/16droenzmusic)


Guitar (Intro 1)
E||--------|--------||------------------------|------------------------|
B||--------|--------||------------------------|------------------------|
G||*-------|-------*||------------------------|------------------------|
D||*-------|-------*||------------------------|---------------------0--|
A||--------|--------||----------4----------2--|----------3-------------|
D||--------|--------||--0---5-------2---------|--0---5-------3---------|


------------------------|------------------------|------------------------|
------------------------|------------------------|------------------------|
------------------------|------------------------|------------------------|
------------------------|---------------------0--|------------------------|
----------4----------2--|----------3-------------|----------4----------2--|
--0---5-------2---------|--0---5-------3---------|--0---5-------2---------|


------------------------|------------------------|---------------------|
------------------------|------------------------|---------------------|
------------------------|------------------------|---------------------|
---------------------0--|------------------------|---------------------|
----------3-------------|----------4----------2--|----------3----------|
--0---5-------3---------|--0---5-------2---------|--0---5--------------|


 (Intro 2)
-----------------9----|--8--------11--------|-----------------9----|
--11------------------|---------------------|--11------------------|
----------------------|---------------------|----------------------|
----------------------|---------------------|----------------------|
----------------------|---------------------|----------------------|
----------------------|---------------------|----------------------|


  
--8-----------------|-----------------9----|--8--------11--------|
-----------9--------|--11------------------|---------------------|
--------------------|----------------------|---------------------|
--------------------|----------------------|---------------------|
--------------------|----------------------|---------------------|
--------------------|----------------------|---------------------|


Verse (first part)
|------------------------|------------------------|
|------------------------|------------------------|
|------------------------|------------------------|
|------------------------|---------------------0--|
|----------4----------2--|----------3-------------|
|--0---5-------2---------|--0---5-------3---------|

Verse (2nd part)
|-----------------9----|--8--------11--------|-----------------9----|
|--11------------------|---------------------|--11------------------|
|----------------------|---------------------|----------------------|
|----------------------|---------------------|----------------------|
|----------------------|---------------------|----------------------|
|----------------------|---------------------|----------------------|


  
--8-----------------|-----------------9----|--8--------11--------|
-----------9--------|--11------------------|---------------------|
--------------------|----------------------|---------------------|
--------------------|----------------------|---------------------|
--------------------|----------------------|---------------------|
--------------------|----------------------|---------------------|




Chorus Guitar 1    
|-----------------------|--------------------------|-------------------------|
|-----------------------|--------------------------|-------------------------|
|-----------------------|--------------------------|-------------------------|
|-----------------------|--3---3----2--2-----------|--4---4----4---4----4----|
|--0---0--0---0--0-0----|--1---1----0--0-----3--3--|--2---2----2---2----2----|
|--0---0--0---0--0-0----|--------------------3--3--|-------------------------|


  
--------------------------|-----------------------|--------------------------|
--------------------------|-----------------------|--------------------------|
--------------------------|-----------------------|--------------------------|
--3---3----2--2-----------|-----------------------|--3---3----2--2-----------|
--1---1----0--0-----3--3--|--0---0--0---0--0-0----|--1---1----0--0-----3--3--|
--------------------3--3--|--0---0--0---0--0-0----|--------------------3--3--|


   
-------------------------|--------------------------|
-------------------------|--------------------------|
-------------------------|--------------------------|
--4---4----4---4----4----|--3---3----2--2-----------|
--2---2----2---2----2----|--1---1----0--0-----3--3--|
-------------------------|--------------------3--3--|

Chorus Guitar 2
|----------------------------------|
|--0-0-0-0-0-0-0-0-0-0-0-0-0-0-0-0-|
|--4-4-4-4-4-4-4-4-4-4-4-4-4-4-4-4-|
|----------------------------------|
|----------------------------------|
|----------------------------------|

Suggest correction
Give kudos to tab author, rate the tab!
1 2 3 4 5
comments
print report bad tab
guest
You may want to rate the tab now too:
select rating
Please do not post tabs as comments. Select "correction" instead!