Oops, an error
Loading. Please wait.

1 Hour Till Yesterday - Bloodshed Tab

306 views 1 this week
1 commentread comment
1 2 3 4 5
please rate
add to favorites
launch autoscroll
font size
0
reset
how to read this tab
guitar tuner
Tab Pro tools
  • play this tab
  • loop segment
  • change instrument
  • show fretboard
  • metronome
Autoscroll
slow
fast
+/-
esc
set tempo
stop
Contributor
Intro:

d----------------------------------------------------|
a--5555----------------------------------------------|
f--7777----------------------------------------------|
c--(3x)----------------------------------------------|
g----------------------------------------------------|
c----------------------------------------------------|

Intro Pt. 2:

d----------------------------------------------------|
a----------------------------------------------------|
f------------87--------------------------------------|
c--000023000087--------------------------------------| (3x)
g--000023000065--------------------------------------|
c--0000230000----------------------------------------|
   ....  ....

                        (after repeat play this)
d---------------------|-------------------------------|
a------------6--------|-------------------------------|
f------------9--------|-------------------------------|
c--0------0-----------|--0~--0------------------------|
g--0--3*--0-----------|--0~--0(mute)------------------|
c--0------0-----------|--0~--0------------------------|
   .      .

repeat intro pt. 2


Verse:

d----------------------------------------------------|
a----------------------------------------------------|
f----------------------------------------------------|
c--00---9-8--00000---10-9----------------------------|
g--00-7------00000-8---------------------------------|
c--00--------00000-----------------------------------|
   ..        .....
d----------------------------------------------------|
a----------------------------------------------------|
f------------------14--15--14------------------------|
c--00000---9-8-000-1400150014------------------------|
g--00000-7-----000-1200130012------------------------|
c--00000-------000---00--00--------------------------|
   .....       ...   ..  ..
d----------------------------------------------------|
a----------------------------------------------------|
f----------------------------------------7--8--7-----|
c--00---9-8-00000---10-9-00000---9-8-000-7008007-----|
g--00-7-----00000-8------00000-7-----000-5006005-----|
c--00-------00000--------00000-------000--00-00------|
   ..       .....        .....       ...  .. ..

repeat verse

Chorus:

all tremolo

d----------------------------------------------------|
a----------------------------------------------------|
f----------------------------------------------------|
c--0-------3------2------0-------8------11-----------|
g--0-(16x)-3-(8x)-2-(8x)-0-(16x)-8-(8x)-11-(8x)------|
c--0-------3------2------0-------8------11-----------|
   .                     .
d----------------------------------------------------|
a----------------------------------------------------|
f---------------------------------------9------------|
c--0-------3------2------0-------8------9-(8x)-------|
g--0-(16x)-3-(8x)-2-(8x)-0-(16x)-8-(8x)-7------------|
c--0-------3------2------0-------8-------------------|
   .                     .

repeat intro pt. 2

Bridge:

d----------------------------------------------------|
a----------------------------------------------------|
f----------------------------------------------------|
c---22222222666666665555555533333333-----------------|
g---22222222333333333333333333333333-----------------|
c--/-------------------------------------------------|
    ................................
d----------------------------------------------------|
a----------------------------------------------------|
f----------------------------------------------------|
c--222222226666666655555555-8~-----------------------|
g--222222223333333333333333-6~-----------------------|
c----------------------------------------------------|
   ........................

d-----------|-----------|-----------|-----------|-----------|
a-----------|-----------|-----------|-----------|--18p16p15-|
f--15p13p12-|--16p14p13-|--15p13p12-|--18p16p15-|----(4x)---|
c----(8x)---|----(8x)---|----(8x)---|----(4x)---|-----------|
g-----------|-----------|-----------|-----------|-----------|
c-----------|-----------|-----------|-----------|-----------|

d-----------|-----------|-----------|-----------|-----------|--------|
a-----------|-----------|-----------|-----------|-----------|--------|
f--15p13p12-|--16p14p13-|--15p13p12-|--18p16p15-|--19p17p16-|---19b--|
c----(8x)---|----(8x)---|----(8x)---|----(4x)---|----(4x)---|--------|
g-----------|-----------|-----------|-----------|-----------|--------|
c-----------|-----------|-----------|-----------|-----------|--------|


Outro:

   (play 3x)
d----------------|--------------------------------|
a-----11-----14~-|-----11-----16~-----------------|
f-----14-----17~-|-----14-----19~-----------------|
c--0------0------|--0------0----------------------|
g--0------0------|--0------0----------------------|
c--0------0------|--0------0----------------------|
   .      .         .      .

play outro 4 times and let the last note ring.




www.myspace.com/1hty








comments
We did not receive enough feedback on this tab! Please rate:
print report bad tab
1 2 3 4 5
1 comment total.
0 reply
BlackAtrium wrote on January 13 2009, 12:53 pm

I like the band name, check out our band, http://www.myspace.com/blackatrium23.
i just learnt this song too, not too bad

I want to post or [tab]
guest
You may want to rate the tab now too:
select rating
Please do not post tabs as comments. Select "correction" instead!