Oops, an error
Loading. Please wait.

1 Hour Till Yesterday - Till Death Tab

204 views 1 this week
no commentswrite comment
1 2 3 4 5
please rate
add to favorites
launch autoscroll
font size
0
reset
how to read this tab
guitar tuner
Tab Pro tools
  • play this tab
  • loop segment
  • change instrument
  • show fretboard
  • metronome
×
Best way to learn
"1 Hour Till Yesterday - Till Death"
Autoscroll
slow
fast
+/-
esc
set tempo
stop
Contributor
ARTIST: 1 HOUR TILL YESTERDAY
SONG: TILL DEATH
ALBUM: LOVE LETTERS LOST IN ASHES
TUNING: DROP D

/-PICK SLIDE
~HOLD NOTE
*PINCH HARMONIC
S-SLIDE
H-HAMMER ON
P-PULL OFF

  (INTRO) 

e|--------------------------------------------------------------------|
B|-----------2--4--5----7---5---4---2--4--5--7---5----4H5P4S2---------|
G|--------------------------------------------------------------------|
D|--------------------------------------------------------------------|
A|-/-/-/--00--0--0---00---0---0---00--0--0--0--0---0------------------|
D|-/-/-/--------------------------------------------------------------|



e|-----------------------------------------------------------------------|
B|---------2--4--5----7---5---4---2--4--5--7---9*------------------------|
G|----------------------------------------------------------9S-----------|
D|-9S-------------------------------------------------------9S-----------|
A|-9S---00--0--0---00---0---0---00--0--0--0--0--------------9S-----------|
D|-9S--------------------------------------------------------------------|

  
  (verse 1)X2

e|-----------------------------------------------------------------------|
B|----------------------------------------------12~----------------------|
G|----------------------------------------------15~----------------------|
D|-0---0000--0000---0--1~---0---0000--0000---0---------------------------|
A|-0---0000--0000---0--1~---0---0000--0000---0---------------------------|
D|-0---0000--0000---0--1~---0---0000--0000---0---------------------------|



e|-----------------------------------------------------------------------|
B|-----------------------------------------------------------------------|
G|-----------------------------------------------------------------------|
D|-0---0000--0000---0--1~---0---0000--0000---0---------------------------|
A|-0---0000--0000---0--1~---0---0000--0000---0---------------------------|
D|-0---0000--0000---0--1~---0---0000--0000---0----3*---------------------|



  (CHORUS 1)X3

e|-----------------------------------------------------------------------|
B|-----------------------------------------------------------------------|
G|-----------------------------------------------------------------------|
D|--2211---2211---221122112211----------------3RD TIME|-9~|--------------|
A|--2211---2211---221122112211------------------------|-9~|--------------|  
D|--2211---2211---221122112211---3*-------------------|-9~|--------------|

 
  (PRE-VERSE)


e|--------------------------------------------------------------------|
B|-----------2--4--5----7---5---4---2--4--5--7---5----4H5P4S2---------|
G|--------------------------------------------------------------------|
D|--------------------------------------------------------------------|
A|-/-/-/--00--0--0---00---0---0---00--0--0--0--0---0------------------|
D|-/-/-/--------------------------------------------------------------|



e|-----------------------------------------------------------------------|
B|---------2--4--5----7---5---4---2--4--5--7---9*------------------------|
G|----------------------------------------------------------9S-----------|
D|-9S-------------------------------------------------------9S-----------|
A|-9S---00--0--0---00---0---0---00--0--0--0--0--------------9S-----------|
D|-9S--------------------------------------------------------------------|


  (VERSE 2) X2


e|-----------------------------------------------------------------------|
B|----------------------12~----------------------------------------------|
G|----------------------15~----------------------------------------------|
D|-0---0000--0000---0-------0---0000--0000---0--1~-----------------------|
A|-0---0000--0000---0-------0---0000--0000---0--1~-----------------------|
D|-0---0000--0000---0-------0---0000--0000---0--1~-----------------------|


 

e|-----------------------------------------------------------------------|
B|----------------------12~----------------------------------------------|
G|----------------------15~----------------------------------------------|
D|-0---0000--0000---0-------0---0000--0000---0---------------------------|
A|-0---0000--0000---0-------0---0000--0000---0---------------------------|
D|-0---0000--0000---0-------0---0000--0000---0----3*---------------------|


  (CHORUS 2)X3

e|-----------------------------------------------------------------------|
B|-----------------------------------------------------------------------|
G|-----------------------------------------------------------------------|
D|--2211---2211---221122112211----------------3RD TIME|-9~|--------------|
A|--2211---2211---221122112211------------------------|-9~|--------------|
D|--2211---2211---221122112211---3*-------------------|-9~|--------------|


  (INTERLUDE PART 1) X2


e|-----------------------------------------------------------------------|
B|-----------------------------------------------------------------------|
G|------------5P4H7-----------5P4S2--------------------------------------|
D|--00-00------------00-00-----------------------------------------------|
A|--00-00------------00-00-----------------------------------------------|
D|--00-00------------00-00-----------------------------------------------|


  (INTERLUDE PART 2) X2

e|-----------------------------------------------------------------------|
B|-----------------------------------------------------------------------|
G|------------5P4H7-----------5P4S2S0------------------------------------|
D|--000-000------------000-000-------------------------------------------|
A|--000-000------------000-000-------------------------------------------|
D|--000-000------------000-000-------------------------------------------|



  (SOLO)


e|-----------------------------------------------------------------------|
B|-----------------------------------------------------------------------|
G|--9999-12121212-11111111-14141414-12121212-15151515-1414141414-17171717|
D|-----------------------------------------------------------------------|
A|-----------------------------------------------------------------------|
D|-----------------------------------------------------------------------|



e|-------------------------------------------------------------------------------|
B|-------------------------------------------17P15P13H17P15P13H17P15P13H17P15P13-|
G|-15~~-19P17P15H19P17P15H19P17P15H19P17P15--------------------------------------|
D|-------------------------------------------------------------------------------|
A|-------------------------------------------------------------------------------|
D|-------------------------------------------------------------------------------|



e|-----------------------------------------------------------------------------------|
B|-------------------------------------------17P15P13H17P15P13H17P15P13H17P15P13S19~-|
G|-15~~-19P17P15H19P17P15H19P17P15H19P17P15------------------------------------------|
D|-----------------------------------------------------------------------------------|
A|-----------------------------------------------------------------------------------|
D|-----------------------------------------------------------------------------------|


  (BREAKDOWN/OUTRO) X5

e|-------------------------------------------------------------------------------|
B|-------------------------------------------------------------------------------|
G|-------------------------------------------------------------------------------|
D|-9~---000--0-0-0-0---000---0-0-0-0--000--0-0-000-0-0--9S0----------------------|
A|-9~---000--0-0-0-0---000---0-0-0-0--000--0-0-000-0-0--9S0----------------------|
D|-9~---000--0-0-0-0---000---0-0-0-0--000--0-0-000-0-0--9S0----------------------|



e|-------------------------------------------------------------------------------|
B|-------------------------------------------------------------------------------|
G|-------------------------------------------------------------------|-------|---|
D|---000--0-0-0-0---000---0-0-0-0--000--0-0-000-0-0-----------ENDON--|-------|---|
A|---000--0-0-0-0---000---0-0-0-0--000--0-0-000-0-0------------------|-------|---|
D|---000--0-0-0-0---000---0-0-0-0--000--0-0-000-0-0----3*------------|-3*~~~~|---|


WEBSITE: HTTP://WWW.MYSPACE.COM/1HTY
comments
We did not receive enough feedback on this tab! Please rate:
print report bad tab
1 2 3 4 5
I want to post or [tab]
guest
You may want to rate the tab now too:
select rating
Please do not post tabs as comments. Select "correction" instead!