Oops, an error
Loading. Please wait.

2Nd And Molino - Different Blood Bass Tab

55 views 1 this week
no commentswrite comment
1 2 3 4 5
please rate
add to favorites
launch autoscroll
font size
0
reset
guitar tuner
Tab Pro tools
  • play this tab
  • loop segment
  • change instrument
  • show fretboard
  • metronome
×
Best way to learn
"2nd And Molino - Different Blood"
Autoscroll
slow
fast
+/-
esc
set tempo
stop
Contributor
Difficulty
intermediate
-------------------------------------------------------------------------------
			                          Different Blood - 2nd & Molino
-------------------------------------------------------------------------------

Tabbed By : Steven Spillane (The bassist of 2nd & Molino!)
e-mail: steven@liquisoft.com

Tuning: Standard, fool. 

Intro: 
G|-----------------------------------------------------------------------------------------------|
D|------------------------15-15-15-15-15-15-15-15------------------------------------------------|
A|-15-15-15-15-15-15-15-15-----------------------12-12-12-12-12-12-12-12-------------------------|
E|-----------------------------------------------------------------------15-15-15-15-15-15-15-15-|

G|-----------------------------------------------------------------------------------------------|
D|------------------------15-15-15-15-15-15-15-15------------------------------------------------|
A|-15-15-15-15-15-15-15-15-----------------------12-12-12-12-12-12-12-12-------------------------|
E|-----------------------------------------------------------------------15-15-15-15-15\3-3-3----|

G|---------------------------------2-2-2-2-2-2-2-2-----------------------------------------------|
D|-----------------3-3-3-3-3-3-3-3-----------------5-5-5-5-5-5-5-5-------------------------------x2
A|-3-3-3-3-3-3-3-3-------------------------------------------------------------------------------|
E|-----------------------------------------------------------------------------------------------|

Verse:
G|---------------5--5-3--222-5-3-3-5-------------------------------------------------------------|
D|----5--2/5--333-33----------------3-----------------------------------------------------------|x3
A|-333-33-------------------------------2353\2/5-------------------------------------------------|
E|------------------------------------33---------------------------------------------------------|

Fourth Bar:
G|---------------5--5-3--222-5-3-3-5-------------------------------------------------------------|
D|----5--2/5--333-33----------------3------------------------------------------------------------| 
A|-333-33----------------------------------------------------------------------------------------|
E|------------------------------------3333/15-15-15-15-------------------------------------------|

Chorus: 
G|-----------------------------------------------------------------------------------------------|
D|------------------------15-15-15-15-15-15-15-15------------------------------------------------|
A|-15-15-15-15-15-15-15-15-----------------------12-12-12-12-12-12-12-12-------------------------|
E|-----------------------------------------------------------------------15-15-15-15-15-15-15-15-|

G|-----------------------------------------------------------------------------------------------|
D|------------------------15-15-15-15-15-15-15-15------------------------------------------------|
A|-15-15-15-15-15-15-15-15-----------------------12-12-12-12-12-12-12-12-------------------------|
E|-----------------------------------------------------------------------15-15-15-15-15\3-3-3----|

G|---------------------------------2-2-2-2-2-2-2-2-----------------------------------------------|
D|-----------------3-3-3-3-3-3-3-3-----------------5-5-5-5-5-5-5-5-------------------------------x2
A|-3-3-3-3-3-3-3-3-------------------------------------------------------------------------------|
E|-----------------------------------------------------------------------------------------------|

Verse

Chorus

Bridge:

G|------2~ -----------------------------2--2--2--2-----------------------------------------------|
D|---3~ ---5~ --------------3--3--3--3--------------5-5-5-5-5-5-5-5------------------------------|
A|-3~ ----------3--3--3--3-----------------------------------------------------------------------|
E|-----------------------------------------------------------------------------------------------|

Outro Chorus: 

G|---------------------------------2-2-2-2-2-2-2-2-----------------------------------------------|
D|-----------------3-3-3-3-3-3-3-3-----------------5-5-5-5-5-5-5-5-------------------------------x4
A|-3-3-3-3-3-3-3-3-------------------------------------------------------------------------------|
E|-----------------------------------------------------------------------------------------------|

End On:

G|-----------------------------------------------------------------------------------------------|
D|-----------------------------------------------------------------------------------------------|
A|---3~ -----------------------------------------------------------------------------------------|
E|-----------------------------------------------------------------------------------------------|
comments
We did not receive enough feedback on this tab! Please rate:
print report bad tab
1 2 3 4 5
I want to post or [tab]
guest
You may want to rate the tab now too:
select rating
Please do not post tabs as comments. Select "correction" instead!