Oops, an error
Loading. Please wait.

331Erock - Spooky Scary Skeletons tab

version 1
version 1

Whole song

Interactive

73 views 12 this week
no commentswrite comment
1 2 3 4 5
3 more votes to show rating
add to favorites
×
Save as Personal and add changes to this tab that will be seen only by you. Learn more ›
×
You can save this tab as Personal to edit and correct it or add notes. All changes will be seen only by you. Learn more »
launch autoscroll
font size
0
reset
how to read this tab
guitar tuner
edit
Autoscroll
slow
fast
+/-
esc
set tempo
stop
331erock - Spooky Scary Skeletons (feat. Miracle of Sound)
Tabbed by: moist_seagull
Link to video - https://www.youtube.com/watch?v=IoKmcunpm78

[Intro]
e|--------------------------------------------10----10-------------------------------|
b|----------12-12---------------11-11------------12----12----12----------12----------|
G|----12h14------------12-11h13------------11-------------11----11----11----11-------|
D|-----------------------------------------------------------------12----------12----|
A|-----------------------------------------------------------------------------------|
E|-----------------------------------------------------------------------------------|
B|-----------------------------------------------------------------------------------|

e|----------10-15-10----------10-14-------------------------14----|
b|-------12----------12----11------------`12----12----15----------|
G|----12----------------11----------------------------------------|
D|----------------------------------------------------------------|
A|----------------------------------------------------------------|
E|----------------------------------------------------------------|
B|----------------------------------------------------------------|

e|--------------------------------------------10----10-------------------------------|
b|----------12-12---------------11-11------------12----12----12----------12----------|
G|----12h14------------12-11h13------------11-------------11----11----11----11-------|
D|-----------------------------------------------------------------12----------12----|
A|-----------------------------------------------------------------------------------|
E|-----------------------------------------------------------------------------------|
B|-----------------------------------------------------------------------------------|

e|----------10-15-10----------10-14------19p14---------------------------14-19----|
b|-------12----------12----11------------------15---------------------15----------|
G|----12----------------11------------------------16---------------16-------------|
D|---------------------------------------------------16---------16----------------|
A|------------------------------------------------------17---17-------------------|
E|---------------------------------------------------------14---------------------|
B|--------------------------------------------------------------------------------|
                                   Sweep|--------------------------------------|

[Verse 1-A]
e|-------------------------------------------------------------|
b|-------------------------------------------------------------|
G|-------------------------------------------------------------|
D|-------------------------------------------------------------|
A|----5------5------4------4-----------------------------------|
E|----3------3------2------2------2------2---------------------|
B|--------------------------------0------0------0-0-0-0-0-0----|
                                             PM|-----------|

e|-------------------------------------------------------------|
b|-------------------------------------------------------------|
G|-------------------------------------------------------------|
D|-------------------------------------------------------------|
A|----5------5------4------4-------------------9-----14--------|
E|----3------3------2------2------7-----10---------------------|
B|----------------------------------0-0----0-0---0-0----0-0----|
                                 PM|---|  |---| |---|  |---|

e|-------------------------------------------------------------|
b|-------------------------------------------------------------|
G|-------------------------------------------------------------|
D|-------------------------------------------------------------|
A|----5------5------4------4-----------------------------------|
E|----3------3------2------2------2------2---------------------|
B|--------------------------------0------0------0-0-0-0-0-0----|
                                             PM|-----------|

e|---------------------------------------------------------|
b|---------------------------------------------------------|
G|---------------------------------------------------------|
D|---------------------------------------------------------|
A|----5-5-5-5-5-5-7-7-7-7-7-7-9----------------------------|
E|----3-3-3-3-3-3-5-5-5-5-5-5-7------2---------------------|
B|-----------------------------------0------0-0-0-0-0-0----|
                                         PM|-----------|

e|-------------------------------------------------------------|
b|-------------------------------------------------------------|
G|-------------------------------------------------------------|
D|-------------------------------------------------------------|
A|----5------5------4------4-----------------------------------|
E|----3------3------2------2------2------2---------------------|
B|--------------------------------0------0------0-0-0-0-0-0----|
                                             PM|-----------|

e|------------------------------------------------------------|
b|------------------------------------------------------------|
G|------------------------------------------------------------|
D|------------------------------------------------------------|
A|----5------5------4------4-------------------4-5----4-------|
E|----3------3------2------2------2------2---7-----------7----|
B|--------------------------------0------0--------------------|

e|-------------------------------------------------------------|
b|-------------------------------------------------------------|
G|-------------------------------------------------------------|
D|-------------------------------------------------------------|
A|----5------5------4------4-----------------------------------|
E|----3------3------2------2------2------2---------------------|
B|--------------------------------0------0------0-0-0-0-0-0----|
                                             PM|-----------|

e|-----------------------------------------------|
b|-----------------------------------------------|
G|-----------------------------------------------|
D|-----------------------------------------------|
A|----5-5-5-5-5-5-7-7-7-7-7-7-9------4-----------|
E|----3-3-3-3-3-3-5-5-5-5-5-5-7------2------2----|
B|------------------------------------------0----|

[Verse 1-B]
e|-------------------------------------------------------------------------------------------------------|
b|-------------------------------------------------------------------------------------------------------|
G|-------------------------------------------------------------------------------------------------------|
D|-------------------------------------------------------------------------------------------------------|
A|-------------------------------------------------------------------------------------------------------|
E|----------------------------5-5-5-5-5-5-5-5-5-5-5-5-7-7-7-7-7-7-7-7-7-7-7-7----------------------------|
B|----3-3-3-3-3-3-3-3-3-3-3-3-------------------------------------------------2-2-2-2-2-2-2-2-2-2-2-2----|
   PM|-----------------------------------------------------------------------------------------------|

e|---------------------------------------------------------------------------------|
b|---------------------------------------------------------------------------------|
G|---------------------------------------------------------------------------------|
D|---------------------------------------------------------------------------------|
A|----------------------------------------------------2-----2-----2-----2-----4----|
E|----2-2-2-2-2-2-2-2-2-2-2-2-3-3-3-3-3-3-3-3-3-3-3-3-0---0-0---0-0---0-0---0-2----|
B|---------------------------------------------------------------------------------|
   PM|-----------------------------------------------|   |-|   |-|   |-|   |-|

[Verse 1-C]
e|---------------------------------------------------------|
b|---------------------------------------------------------|
G|---------------------------------------------------------|
D|---------------------------------------------------------|
A|----5-5-5-5------4-4-4-4---------------------------------|
E|----3-3-3-3------2-2-2-2------2-2-2----------------------|
B|------------------------------0-0-0-0-0-0-0-0-0-0-0-0----|
   PM|-----|      |-----|      |-----------------------|

e|-----------------------------------------------------------|
b|-----------------------------------------------------------|
G|-----------------------------------------------------------|
D|-----------------------------------------------------------|
A|----5-5-5-5------4-4-4-4-------------------9-----14--------|
E|----3-3-3-3------2-2-2-2------7-----10---------------------|
B|--------------------------------0-0----0-0---0-0----0-0----|
   PM|-----|      |-----|        |---|  |---| |---|  |---|

e|---------------------------------------------------------|
b|---------------------------------------------------------|
G|---------------------------------------------------------|
D|---------------------------------------------------------|
A|----5-5-5-5------4-4-4-4---------------------------------|
E|----3-3-3-3------2-2-2-2------2-2-2----------------------|
B|------------------------------0-0-0-0-0-0-0-0-0-0-0-0----|
   PM|-----|      |-----|      |-----------------------|

e|-----------------------------------------------|
b|-----------------------------------------------|
G|-----------------------------------------------|
D|-----------------------------------------------|
A|----5-5-5-5-5-5-7-7-7-7-7-7-9------4-----------|
E|----3-3-3-3-3-3-5-5-5-5-5-5-7------2------2----|
B|------------------------------------------0----|

[Pre-solo]
e|--------------------------------------------10----10-------------------------------|
b|----------12-12---------------11-11------------12----12----12----------12----------|
G|----12h14------------12-11h13------------11-------------11----11----11----11-------|
D|-----------------------------------------------------------------12----------12----|
A|-----------------------------------------------------------------------------------|
E|-----------------------------------------------------------------------------------|
B|-----------------------------------------------------------------------------------|

e|----------10-15-10----------10-14-------------------------14----|
b|-------12----------12----11------------`12----12----15----------|
G|----12----------------11----------------------------------------|
D|----------------------------------------------------------------|
A|----------------------------------------------------------------|
E|----------------------------------------------------------------|
B|----------------------------------------------------------------|

e|--------------------------------------------10----10-------------------------------|
b|----------12-12---------------11-11------------12----12----12----------12----------|
G|----12h14------------12-11h13------------11-------------11----11----11----11-------|
D|-----------------------------------------------------------------12----------12----|
A|-----------------------------------------------------------------------------------|
E|-----------------------------------------------------------------------------------|
B|-----------------------------------------------------------------------------------|

e|----------10-15-10----------10-14---------------------------|
b|-------12----------12----11------------12-------------------|
G|----12----------------11-----------------------11-----------|
D|-------------------------------------------------------9----|
A|------------------------------------------------------------|
E|------------------------------------------------------------|
B|------------------------------------------------------------|

[Solo]
                                             N.H
e|-------------------------------------------------------------------|
b|--------------------------------------------5/\/\/\/\/\/\/\/\/\----|
G|----12------12------11------11----------7--------------------------|
D|------------------------------------9------------------------------|
A|-------------------------------------------------------------------|
E|-------------------------------------------------------------------|
B|-------------------------------------------------------------------|

e|----------------------------------------------------------|
b|----12------12------15------15------14--15p14-------------|
G|----------------------------------------------16p14-16----|
D|----------------------------------------------------------|
A|----------------------------------------------------------|
E|----------------------------------------------------------|
B|----------------------------------------------------------|

e|----10p7------9p7------10p7----------------------------------------------------|
b|---------10p7-----10p7------10p7-----------------------------------------------|
G|---------------------------------9p7-----9p7-----10p7-----11p7-----10p7--------|
D|-------------------------------------9p7-----9p7------9p7------9p7------9p7----|
A|-------------------------------------------------------------------------------|
E|-------------------------------------------------------------------------------|
B|-------------------------------------------------------------------------------|

e|---------------------------------------------------------------------------------------------------|
b|-----------------------------------------------------------------------------------------7h9t10----|
G|----9/10\9p7-9p7------------------------------------------------------------------7h9t10-----------|
D|-----------------9---8---7-------------------------------------------------7h9t10------------------|
A|-----------------------------9---8---7---5---7/8\7p5----------------7h9t10-------------------------|
E|-----------------------------------------------------7-------7h9t10--------------------------------|
B|---------------------------------------------------------------------------------------------------|

e|---7h9t10p9p7\5h7p5t10p9p7\5h7p5t10p9p7\5h7p5t10p9p7t11p10p8t12p11p9t13p12p10t14p13p11t15p14p12t17p16p14---|
b|-----------------------------------------------------------------------------------------------------------|
G|-----------------------------------------------------------------------------------------------------------|
D|-----------------------------------------------------------------------------------------------------------|
A|-----------------------------------------------------------------------------------------------------------|
E|-----------------------------------------------------------------------------------------------------------|
B|-----------------------------------------------------------------------------------------------------------|

                                                                                                       P.H
e|-----------------------------------------------------------------------------------------------------------|
b|---t15p14p12-----------------------------------------------------------------------------------------------|
G|-------------t15p14p12---------------------------------------------------10--------9--------7----2----4----|
D|-----------------------t15p14p12-------------------------------------x-x-7-----x-x-7----x-x-7----2---------|
A|---------------------------------t15p14p12-----------------------------------------------------------------|
E|-------------------------------------------t15p14p12h14t15p12----------------------------------------------|
B|-----------------------------------------------------------------------------------------------------------|

e|------------------------------------17------18b19----|
b|--------------12------------------------19-----------|
G|-------10------------11-----10--16-------------------|
D|----9------9------9------9---------------------------|
A|-----------------------------------------------------|
E|-----------------------------------------------------|
B|-----------------------------------------------------|

e|-----------------------------------------------------------------------------------------|
b|-----------------------------------------------------------------------------------------|
G|----9---10p9------9---10p9------9---10p9---------9-11h14p11p9---------9-11t16p11p9-------|
D|-------------12p9----------12p9----------12p9-12--------------12p9-12--------------12----|
A|-----------------------------------------------------------------------------------------|
E|-----------------------------------------------------------------------------------------|
B|-----------------------------------------------------------------------------------------|

e|----12---13p12----------12---13p12----------12-13p12--------------17t22p19p17--------------t22p19----|
b|---------------15p12h15------------15p12h15----------15p12--17h19-------------t22p19p17h19-----------|
G|-----------------------------------------------------------------------------------------------------|
D|-----------------------------------------------------------------------------------------------------|
A|-----------------------------------------------------------------------------------------------------|
E|-----------------------------------------------------------------------------------------------------|
B|-----------------------------------------------------------------------------------------------------|

e|----19-18-17----------------------------------------------------------------------------------------------|
b|-------------19-18-17-------------------------------------------------------------------------------------|
G|----------------------16-15-14----------16-15-14----------------------------------------------------------|
D|-------------------------------16-15-14----------16-15-14-------------------------------------14-15-16----|
A|----------------------------------------------------------14-13-12----------------12-14-15-16-------------|
E|-------------------------------------------------------------------14-13-12-13-14-------------------------|
B|----------------------------------------------------------------------------------------------------------|

e|----------------------------------------------------------------------14-15-16-15-14----------14----|
b|-------------------------------------14-15-16-15-14----------14-15-16----------------16-15-14-------|
G|----14-15-16-15-14----------14-15-16----------------16-15-14----------------------------------------|
D|-------------------16-15-14-------------------------------------------------------------------------|
A|----------------------------------------------------------------------------------------------------|
E|----------------------------------------------------------------------------------------------------|
B|----------------------------------------------------------------------------------------------------|

e|----17p14----------------------------14t17/18\17/18\17/18\17--------19~~~~~----|
b|----------15----------------------15-------------------------------------------|
G|-------------16----------------16----------------------------------------------|
D|----------------16----------16-------------------------------------------------|
A|-------------------17----17----------------------------------------------------|
E|----------------------14-------------------------------------------------------|
B|-------------------------------------------------------------------------------|
Sweep|-----------------------------------|

[Verse 2-A]
e|-------------------------------------------------------------------------------------------------------|
b|-------------------------------------------------------------------------------------------------------|
G|-------------------------------------------------------------------------------------------------------|
D|-------------------------------------------------------------------------------------------------------|
A|-------------------------------------------------------------------------------------------------------|
E|----------------------------5-5-5-5-5-5-5-5-5-5-5-5-7-7-7-7-7-7-7-7-7-7-7-7----------------------------|
B|----3-3-3-3-3-3-3-3-3-3-3-3-------------------------------------------------2-2-2-2-2-2-2-2-2-2-2-2----|
   PM|-----------------------------------------------------------------------------------------------|

e|---------------------------------------------------------------------------------|
b|---------------------------------------------------------------------------------|
G|---------------------------------------------------------------------------------|
D|---------------------------------------------------------------------------------|
A|----------------------------------------------------2-----2-----2-----2-----4----|
E|----2-2-2-2-2-2-2-2-2-2-2-2-3-3-3-3-3-3-3-3-3-3-3-3-0---0-0---0-0---0-0---0-2----|
B|---------------------------------------------------------------------------------|
   PM|-----------------------------------------------|   |-|   |-|   |-|   |-|

[Verse 2-B]
e|-----------------------------------------------------------------------------------------------|
b|-----------------------------------------------------------------------------------------------|
G|-----------------------------------------------------------------------------------------------|
D|----------------------5------4-------------------5------4-------------------5------4-----------|
A|----------------------5------4------2------------5------4------2------------5------4------2----|
E|----\\\\\\\\\\\\\\----3------2------2------------3------2------2------------3------2------2----|
B|----\\\\\\\\\\\\\\------------------0--------------------------0--------------------------0----|
        Pick Slide

e|--------------------------------------------------------------------------------------------------------|
b|--------------------------------------------------------------------------------------------------------|
G|--------------------------------------------------------------------------------------------------------|
D|----5------7------9------------5------4-------------------5------4-------------------5------4-----------|
A|----5------7------9------------5------4------2------------5------4------2------------5------4------2----|
E|----3------5------7------------3------2------2------------3------2------2------------3------2------2----|
B|---------------------------------------------0--------------------------0--------------------------0----|

e|------------------------------|
b|------------------------------|
G|------------------------------|
D|------------------------------|
A|----5------7------4------5----|
E|----5------7------4------5----|
B|----3------5------2------3----|

[Outro Solo]
e|--------------------------------------------10----10-------------------------------|
b|----------12-12---------------11-11------------12----12----12----------12----------|
G|----12h14------------12-11h13------------11-------------11----11----11----11-------|
D|-----------------------------------------------------------------12----------12----|
A|-----------------------------------------------------------------------------------|
E|-----------------------------------------------------------------------------------|
B|-----------------------------------------------------------------------------------|

e|----------10-15-10----------10-14-------------------------14----|
b|-------12----------12----11------------`12----12----15----------|
G|----12----------------11----------------------------------------|
D|----------------------------------------------------------------|
A|----------------------------------------------------------------|
E|----------------------------------------------------------------|
B|----------------------------------------------------------------|

e|----17-14-17-15-17-15-14--------------------------------------------------------------------|
b|--------------------------17-14-17-15-17-15-14----------------------------------------------|
G|-----------------------------------------------15-12-15-13-15-13-12-------------------------|
D|--------------------------------------------------------------------15-12-15-13-15-13-12----|
A|--------------------------------------------------------------------------------------------|
E|--------------------------------------------------------------------------------------------|
B|--------------------------------------------------------------------------------------------|

e|-------------------------------------------------------------------------------------14-15-17----|
b|----------------------------------------------------------------------------14-15-17-------------|
G|-------------------------------------------------------------------11-12-14----------------------|
D|----------------------------------------------------------11-12-14-------------------------------|
A|----12-9-12-10-12-10-9----------------------------9-10-12----------------------------------------|
E|-----------------------12-9-12-10-12-10-9-9-10-12------------------------------------------------|
B|-------------------------------------------------------------------------------------------------|

e|----19--------------------|
b|------------19------------|
G|--------------------14----|
D|--------------------------|
A|--------------------------|
E|--------------------------|
B|--------------------------|

************************************

| /\  Whammy
| h   Hammer-on
| p   Pull-off
| t   Tapping
| b   Bend
| /   Slide up
| \   Slide down
| ~   Vibrato

************************************

            
            
Suggest correction
Creating personal tab
Creating personal tab
You can edit any tab online and save it as your Personal.

You can edit, replace or remove any tab part or add personal notes – all changes will be seen only by you.

Personal tabs can be accessed anytime from any device, even offline.
Learn more »
Give kudos to tab author, rate the tab!
1 2 3 4 5
comments
print report bad tab
guest
You may want to rate the tab now too:
select rating
Wanna post a correction for this tab? Suggest correction