Oops, an error
Loading. Please wait.

3Pm - Perfect For Me Tab

94 views 1 this week
no commentswrite comment
1 2 3 4 5
please rate
add to favorites
launch autoscroll
font size
0
reset
how to read this tab
guitar tuner
Autoscroll
slow
fast
+/-
esc
set tempo
stop
Help us to improve Ultimate-Guitar.com Take our survey!
×
Difficulty
Tuning
intermediate
D A D G B E
This Tab is 100% correct because it was made by 3PM themselves!
Here is a Lyric video on Youtube: http://www.youtube.com/watch?v=KY5oYvfDoF4

Intro- Palm Muted
e|-----------------|X3----------------|Then-----------|
B|-----------------|------------------|---------------|
G|-----------------|------------------|---------------|
D|00000000-77777777|-5555555555555555-|-5~------------|
A|00000000-77777777|-5555555555555555-|-5~-let ring---|
D|00000000-77777777|-5555555555555555-|-5~------------|

Riff
e|----------------------------------------------------------------|
B|3-3-2-2-3-3-5-5-3-3-2-2-3-3-5-5-3-3-2-2-3-3-5-5-7-7-5-5-3-3-5-5-|
G|----------------------------------------------------------------|
D|----------------------------------------------------------------|
A|----------------------------------------------------------------|
E|----------------------------------------------------------------|

e|2-2-0-0-2-2-3-3-2-2-0-0-2-2-3-3-2-2-0-0-2-2-3-3-5-5-3-3-2-2-3-3-2~~~-|
B|3-3-2-2-3-3-5-5-3-3-2-2-3-3-5-5-3-3-2-2-3-3-5-5-7-7-5-5-3-3-5-5-3~~~-|
G|---------------------------------------------------------------------|
D|---------------------------------------------------------------------|
A|---------------------------------------------------------------------|
E|---------------------------------------------------------------------|

Verse
e|2X---------------|2X----------------------|1st end-|2nd end-|
B|-----------------|--7---7---5---5---7---7-|--8---8-|88888---|
G|-----------------|---7---7---7---7---7---7|---7---7|77777---|
D|0----7----5------|77--77--77--77--77--77--|77--77--|77777---|
A|0-X8-7-X8-5-X16--|------------------------|--------|--------|
E|0----7----5------|------------------------|--------|--------|
                                                          
Chorus
Guitar 1
e|--------------------------------------------------|
B|--------------------------------------------------|
G|--------------------------------------------------|
D|0-0--7-7--5-5--7-7--0-0--7-7--5-5--77777777-------|
A|0-0--7-7--5-5--7-7--0-0--7-7--5-5--77777777-------|
E|0-0--7-7--5-5--7-7--0-0--7-7--5-5--77777777-------|

e|--------------------------------------------------|
B|--------------------------------------------------|
G|--------------------------------------------------|
D|9~--7~--5~--7~--9~--7~--5~------------------------|
A|9~--7~--5~--7~--9~--7~--5~ let ring---------------|
E|9~--7~--5~--7~--9~--7~--5~------------------------|

Guitar 2
e|--------------------------------------------------|
B|--------------------------------------------------|
G|--------------------------------------------------|
D|0-0--7-7--5-5--7-7--0-0--7-7--5-5--77777777-------|
A|0-0--7-7--5-5--7-7--0-0--7-7--5-5--77777777-------|
E|0-0--7-7--5-5--7-7--0-0--7-7--5-5--77777777-------|

e|-------------------------------------------------------------|
B|-------------------------------------------------------------|
G|7-----6------7------9------11------99999-11-7~-12-11-7-------|
D|x-(x8)x-(x8)-x-(x8)-x-(x8)-11-(x8)-xxxxx-x--x~-x--x--x-------|
A|5-----4------5------7------9-------77777-9--5~-10-9--5-------|
E|-------------------------------------------------------------|


(Riff)
(Verse)
(Chorus)

Bridge
e|2~--------3~---2~--------3~---------------------------|
B|3~---2~---3~---3~---2~---3~---------------------------|
G|2~---2~---0~---2~---2~---0~---------------------------|
D|0~---2~---0~---0~---2~---0~-let ring------------------|
A|-----0~---2~--------0~---2~---------------------------|
E|----------3~-------------3~---------------------------|


(Half Time Chorus)
(Chorus)

Ending sexy part
e|--------3-----------------------------------------|
B|--3---3-------------------------------------------|
G|----2---------------------------------------------|
D|0-------------------------------------------------|
A|--------------------------------------------------|
E|--------------------------------------------------|
Suggest correction
Give kudos to tab author, rate the tab!
1 2 3 4 5
comments
print report bad tab
guest
You may want to rate the tab now too:
select rating
Please do not post tabs as comments. Select "correction" instead!