Oops, an error
Loading. Please wait.

4 Good Reasons - Free To Decide Bass Tab

126 views 1 this week
no commentswrite comment
1 2 3 4 5
please rate
add to favorites
launch autoscroll
font size
0
reset
guitar tuner
Tab Pro tools
  • play this tab
  • loop segment
  • change instrument
  • show fretboard
  • metronome
Autoscroll
slow
fast
+/-
esc
set tempo
stop
Contributor
INTRO
G|----|----|----|----|----|----|----|----|
D|4--4|----|----|----|4--4|----|----|----|
A|----|1--1|2--2|----|----|1--1|2--2|4--4|
E|----|----|----|4--4|----|----|----|----|

VERSE (same as intro)
G|----|----|----|----|----|----|----|----|
D|4--4|----|----|----|4--4|----|----|----|
A|----|1--1|2--2|----|----|1--1|2--2|4--4|
E|----|----|----|4--4|----|----|----|----| (2x)

CHORUS
G|----|----|----|----|
D|4444|6666|----|----|
A|----|----|4444|4444|
E|----|----|----|----| (2x)

G|----|----|4444|6666|
D|4444|6666|----|----|
A|----|----|----|----|
E|----|----|----|----|

G|----|----|----|----|
D|4444|1111|----|----|
A|----|----|2222|4444|
E|----|----|----|----| (2x) 

G|----|----|----|----|
D|4444|---4|-444|4444|
A|----|22--|----|----|
E|----|----|----|----| (I'm not 100% about the tabbing of this ending...)

VERSE
CHORUS

BRIDGE
G|----|----|----|----|
D|----|----|2-2-|4-4-|
A|2-2-|4-4-|----|----|
E|----|----|----|----| (4x)

G|----|----|
D|--2-|----|
A|2---|4---|
E|----|----| (I'm not 100% about the tabbing of this ending...)

GUITARSOLO
G|----|----|----|----|
D|4---|6---|----|----|
A|----|----|4---|----|
E|----|----|----|----|

G|----|----|4--4|6--6|
D|4--4|6--6|----|----|
A|----|----|----|----|
E|----|----|----|----|

G|----|----|----|----|
D|4--4|1--1|----|----|
A|----|----|2--2|4--4|
E|----|----|----|----| (2x) 

G|----|----|----|----|
D|4444|---4|----|----|
A|----|22--|----|----|
E|----|----|----|----| (Same problem...)

VERSE (altered)
G|----|----|----|----|----|----|----|----|
D|4--4|----|----|----|4--4|----|----|----|
A|----|1--1|2--2|----|----|1--1|2--2|4--4|
E|----|----|----|4--4|----|----|----|----|

G|----|----|----|----|----|----|----|----|
D|4--4|----|----|----|4--4|----|----|----|
A|----|1--1|2--2|----|----|0--0|2--2|4--4|
E|----|----|----|4--4|----|----|----|----|

G|----|----|----|----|
D|4---|----|----|----|
A|----|0---|2---|4---|
E|----|----|----|----|


CHORUS

LAST CHORUS
G|----|----|----|----|
D|6666|8888|----|----|
A|----|----|6666|6666|
E|----|----|----|----| (2x)

G|----|----|6666|8888|
D|6666|8888|----|----|
A|----|----|----|----|
E|----|----|----|----|

G|----|----|----|----|
D|6666|3333|----|----|
A|----|----|4444|6666|
E|----|----|----|----| (2x) 

G|----|----|----|----|
D|6666|---6|-666|6666|
A|----|44--|----|----|
E|----|----|----|----| (I still don't know it...)

G|----|----|----|----|
D|6666|---6|-666|6666|
A|----|44--|----|----|
E|----|----|----|----| (...and again...)

G|----|----|
D|6666|----|
A|----|44-6|
E|----|----| (...and again!)

comments
We did not receive enough feedback on this tab! Please rate:
print report bad tab
1 2 3 4 5
I want to post or [tab]
guest
You may want to rate the tab now too:
select rating
Please do not post tabs as comments. Select "correction" instead!