Oops, an error
Loading. Please wait.

4Th Degree Burn - Where The Scriamachy Lies Bass Tab

90 views 1 this week
no commentswrite comment
1 2 3 4 5
please rate
add to favorites
launch autoscroll
font size
0
reset
guitar tuner
Autoscroll
slow
fast
+/-
esc
set tempo
stop
Help us to improve Ultimate-Guitar.com Take our survey!
×
Difficulty
advanced
                            WHERE THE SCRIAMACHY LIES 
                          As recorded by 4th Degree Burn
                    (From the 2007 Album NOTHING FROM SOMETHING)


Standard Tuning
 Intro
 2/8                           4/4

|-------|--------|-----6--5--|-----------|-----------|-----------|----------|
|-------|--------|-----------|-----------|-----------|-----------|----------|
|-------|--4--6--|--8--------|-----------|-----------|-----------|--6-------|
|--4----|--------|-----------|--1--------|--4--------|--1--------|----------|


|-----------|-------------------|----------------|----------------|
|-----------|-------------------|----------------|----------------|
|-----------|-------------------|----------------|----------------|
|--1--------|--1-1-1-1-1-1-1-1--|--1--1--1-1--3--|--4--4--4-4--4--|


|----------------|-----------------|----------------|----------------|
|----------------|-----------------|----------------|----------------|
|----------------|--3--3--3-3------|----------------|----------------|
|--6--6--6-6--7--|-------------4\--|--1--1--1-1--3--|--4--4--4-4--4--|


|----------------|----------------|----------------|----------------|
|----------------|----------------|----------------|----------------|
|----------------|--3--3--3-3--3--|--4--4--4-4--4--|--6--6--6-6--6--|
|--6--6--6-6--7--|----------------|----------------|----------------|

                              Verses
    
|-----------------|--------|--------------------------------10--8--10/12\---|
|-----------------|--------|o------x--6--5--5^6^5--6--6/8~-----------------o|
|--6/8~~----(8)\--|--------|o--4-4-x---------------------------------------o|
|-----------------|--------|------------------------------------------------|


 Chorus
 2/8

|-------|--------|-----6--5--|--3----|-------|--------|-----6--5--|--6-6/8--|
|-------|--------|-----------|-------|-------|--------|-----------|---------|
|-------|--4--6--|--8--------|-------|-------|--4--6--|--8--------|---------|
|--4----|--------|-----------|-------|--4----|--------|-----------|---------|


|-------|--------|--------|----------|-------|--------|--------|----------|
|-------|--------|-----6--|--6^8~----|-------|--------|--------|----------|
|-------|--4--6--|--8-----|----------|-------|--4--6--|--8--8--|--6--4~~--|
|--4----|--------|--------|----------|--4----|--------|--------|----------|


|-------|--------|--------|----------|
|-------|--------|-----6--|--6-------|
|-------|--4--6--|--8-----|--8-------|
|--4----|--------|--------|----------|


That's pretty much it. Good luck!



Suggest correction
Give kudos to tab author, rate the tab!
1 2 3 4 5
comments
print report bad tab
guest
You may want to rate the tab now too:
select rating
Please do not post tabs as comments. Select "correction" instead!