Oops, an error
Loading. Please wait.

5000 Volts - Im On Fire Bass Tab

16 views 3 this week
no commentswrite comment
1 2 3 4 5
3 more votes to show rating
add to favorites
launch autoscroll
font size
0
reset
guitar tuner
Autoscroll
slow
fast
+/-
esc
set tempo
stop
Help us to improve Ultimate-Guitar.com Take our survey!
×
Author
I’m On Fire
19175 release by the band 5000 Volts featuring Tina Charles on Lead 
Vocals. A massive hit all over Europe, #4 in the UK and #1 in Germany
And Sweden. Tab by bass50611. Welcome to my tab, not exact but very 
Close to original recording. Comments at bass254@btinternet.com 

Intro:
G|-----------------------------------------------------------|
D|-5--0-2-5--0-2-5--0-2-5--0-5---3----0-3----0-3----0-3--0-3-|
A|----------------------------------3------3------3----------|
E|-----------------------------------------------------------|

G|-----------------------------------------------------------|
D|-5--0-2-5--0-2-5--0-2-5--0-5---3----0-3----0-3----0-3--3-2-|
A|----------------------------------3------3------3----------|
E|-----------------------------------------------------------|

Verse 1:
G|-----------------------------------------------------------|
D|-----------------------------------------------------------|
A|-5--0-2-5--0-2-5--0-2-5--0-5---3----0-3----0-3----0-3--0-3-|
E|----------------------------------3------3------3----------|

G|------------------------------------------------------------|
D|--------------------------------------------------------0-2-|
A|-5--0-2-5--0-2-5--0-2-5--0-5---3----0-3----0-3----0-3-3-----|
E|----------------------------------3------3------3-----------|

G|---------------------------------------------------------|
D|-3----0-3----0-3----0-3--3-5-7------7------7------7------|
A|----3------3------3-------------7-9----7-9----7-9----7-9-|
E|---------------------------------------------------------|

G|---------------------------------------------------|
D|-8-------8--8-7-5------5----5----------------------|
A|----8-10-----------5-7----7----3---3---3---3---3-4-|
E|---------------------------------------------------|

Verse 2:
G|-----------------------------------------------------------|
D|-----------------------------------------------------------|
A|-5--0-2-5--0-2-5--0-2-5--0-5---3----0-3----0-3----0-3--0-3-|
E|----------------------------------3------3------3----------|

G|------------------------------------------------------------|
D|--------------------------------------------------------0-2-|
A|-5--0-2-5--0-2-5--0-2-5--0-5---3----0-3----0-3----0-3-3-----|
E|----------------------------------3------3------3-----------|

G|---------------------------------------------------------|
D|-3----0-3----0-3----0-3--3-5-7------7------7------7------|
A|----3------3------3-------------7-9----7-9----7-9----7-9-|
E|---------------------------------------------------------|

G|---------------------------------------------------|
D|-8-------8--8-7-5------5----5----------------------|
A|----8-10-----------5-7----7----3---3---3---3---3-4-|
E|---------------------------------------------------|

Chorus:                                          (Play This Bit x4)
G|-----------------------------------------------------------|
D|-----------------------------------------------------------|
A|-5--0-2-5--0-2-5--0-2-5--0-5---3----0-3----0-3----0-3--0-3-|
E|----------------------------------3------3------3----------|

Verse 3:
G|-----------------------------------------------------------|
D|-----------------------------------------------------------|
A|-5--0-2-5--0-2-5--0-2-5--0-5---3----0-3----0-3----0-3--0-3-|
E|----------------------------------3------3------3----------|

G|------------------------------------------------------------|
D|--------------------------------------------------------0-2-|
A|-5--0-2-5--0-2-5--0-2-5--0-5---3----0-3----0-3----0-3-3-----|
E|----------------------------------3------3------3-----------|

G|---------------------------------------------------------|
D|-3----0-3----0-3----0-3--3-5-7------7------7------7------|
A|----3------3------3-------------7-9----7-9----7-9----7-9-|
E|---------------------------------------------------------|

G|---------------------------------------------------|
D|-8-------8--8-7-5------5----5----------------------|
A|----8-10-----------5-7----7----3---3---3---3---3-4-|
E|---------------------------------------------------|

Outro:                                        (Repeat To Fade/End)
G|-----------------------------------------------------------|
D|-----------------------------------------------------------|
A|-5--0-2-5--0-2-5--0-2-5--0-5---3----0-3----0-3----0-3--0-3-|
E|----------------------------------3------3------3----------|

Suggest correction
Give kudos to tab author, rate the tab!
1 2 3 4 5
comments
print report bad tab
guest
You may want to rate the tab now too:
select rating
Wanna post a correction for this tab? Suggest correction