Oops, an error
Loading. Please wait.

7 Wednesdays - Unforgivable Bass Tab

77 views 3 this week
no commentswrite comment
1 2 3 4 5
please rate
add to favorites
launch autoscroll
font size
0
reset
guitar tuner
Tab Pro tools
  • play this tab
  • loop segment
  • change instrument
  • show fretboard
  • metronome
Autoscroll
slow
fast
+/-
esc
set tempo
stop
Intro
----------------------------------------------------------------------|
----------------------------------------------------------------------|  x2
--3-3-3---------------------------------------------------------------|
---------3-3-3--5-5-5--1-1--3-3---------------------------------------|

Verse 1
------------------------------------------------------------------------|
------------------------------------------------------------------------| x2
--3-3-3-3-3-3-3-3-------------------------------------------------------|
--------------------3-3-3-3-3-3-3-3--5-5-5-5-5-5-5-5--1-1-1-1--3-3-3-3--|


chorus
----------------------------------------------------------------------|
-----------------------------------------------------------3--------5-|
--3-3-3-3-3-3-3-2----------------------------------------3--------5---|
-------------------3-3-3-3-3-3-0-3--5-5-5-5-5-5-5-5--1-1------3-3-----|

=D
comments
We did not receive enough feedback on this tab! Please rate:
print report bad tab
1 2 3 4 5
I want to post or [tab]
guest
You may want to rate the tab now too:
select rating
Please do not post tabs as comments. Select "correction" instead!