Oops, an error
Loading. Please wait.

8 Inch Betsy - Doomed Bass Tab

65 views 1 this week
no commentswrite comment
1 2 3 4 5
please rate
add to favorites
launch autoscroll
font size
0
reset
guitar tuner
Tab Pro tools
  • play this tab
  • loop segment
  • change instrument
  • show fretboard
  • metronome
×
Best way to learn
"8 Inch Betsy - Doomed"
Autoscroll
slow
fast
+/-
esc
set tempo
stop
Contributor
Difficulty
novice
Very easy song, only has 2 parts to learn

http://www.myspace.com/8inchbetsy

Riff 1
G|------------------------------------------------------------|
D|------------------------------------------------------------|
A|-0------------0-------3-3-3-3-3-3-5-5-7-7-7-7-7-7-7-7-------| X4
E|----------------1-------------------------------------------|


Riff 2
G|-----------------------------------------------------------------|
D|-----------------------------------------------------------------|
A|-----------------0-0-0-0-0-0-0-0---------------------------------| X6
E|-1-1-1-1-1-1-1-1-----------------3-3-3-3-3-3-3-3-3-3-3-3-3-3-3-3-|


Riff 1 X 4
Riff 2 X 6
Riff 1 X 4
Riff 2 X 8

Ending

G|---------------------------------------------------|
D|---------------------------------------------------|
A|-----------------0-0-0-0-0-0-0-0-------------------| 
E|-1-1-1-1-1-1-1-1-----------------3~----------------|
comments
We did not receive enough feedback on this tab! Please rate:
print report bad tab
1 2 3 4 5
I want to post or [tab]
guest
You may want to rate the tab now too:
select rating
Please do not post tabs as comments. Select "correction" instead!