Oops, an error
Loading. Please wait.

A Lifelike Story - Dawn Of Disaster Bass Tab

131 views 1 this week
no commentswrite comment
1 2 3 4 5
please rate
add to favorites
launch autoscroll
font size
0
reset
guitar tuner
Autoscroll
slow
fast
+/-
esc
set tempo
stop
Help us to improve Ultimate-Guitar.com Take our survey!
×
Difficulty
novice
KEY:

~ = hold out note

Intro: (Bass Comes in on the 2nd guitar riff)

G: ------------------------------------|
D: ------------------------------------|
A: --5-4-2-0-2-0------5-4-2-0-2-0------|
E: --------------4 0 2-------------4 00|

Verse:

"Why Can't I Stop"
G: ---------------------------------------------------------|
D: ---------------------------------------------------------|
A: --------------------5-5~-----------5-0-0~--------0-------|
E: -0-2-2~------------2-------------------------------0-0~--|     Play 2x

Chorus:

"I'm Giving Up..."
G: ---------------------------------------------------------------------|
D: ---------------------------------------------------------------------|
A: ----------------------------------5-55555555555555-------------------|
E: -5-55555555550000-2-22222222220000-----------------0222--0000--0020--|      Play 2x


(No bass in the transition between chorus and second verse)


Verse:

"I let my life...."
G: ------------------------------------------------------------|
D: ------------------------------------------------------------|
A: -------------------5-5~----------5-0-0~--------0------------|
E: --0-2-2~----------2-----------------------------0-0~----000-|     Play 2x


Chorus:

"I'm Giving Up..."
G: ---------------------------------------------------------------------|
D: ---------------------------------------------------------------------|
A: ----------------------------------5-55555555555555-------------------|
E: -5-55555555550000-2-22222222220000-----------------0222--0000--0020--|      Play 2x


Bridge:


G; ----------------------------------------------------------------------|
D: ----------------------------------------------------------------------|
A: --------------------------------------------------5~------------------|
E: --0222--0000--0000-0222-0000-0000--0222-0000--0-5-----------------5~--|

(No bass in the clean part of the bridge)


Chorus:

"I'm Giving Up..."
G: ---------------------------------------------------------------------|
D: ---------------------------------------------------------------------|
A: ----------------------------------5-55555555555555-------------------|
E: -5-55555555550000-2-22222222220000-----------------0222--0000--0020--|      Play 4x



Outro:


G: --------------------|
D: --------------------|
A: --------------------|
E: --0-22-----0-2202---|

(Live Version- end on 5 instead of 2)
Suggest correction
What's this?
You can suggest a correction to this tab. Community and Mods will review your correction and vote to approve or reject it.
comments
We did not receive enough feedback on this tab! Please rate:
print report bad tab
1 2 3 4 5
guest
You may want to rate the tab now too:
select rating
Please do not post tabs as comments. Select "correction" instead!