Oops, an error
Loading. Please wait.

A Lifelike Story - Weve Got The Night Bass Tab

219 views 1 this week
no commentswrite comment
1 2 3 4 5
3 more votes to show rating
add to favorites
launch autoscroll
font size
0
reset
guitar tuner
Autoscroll
slow
fast
+/-
esc
set tempo
stop
Help us to improve Ultimate-Guitar.com Take our survey!
×
Difficulty
novice
KEY:


~ = let the note ring out

Intro: (Come in after first guitar riff)

G: ---------------------------------------|
D: ---------------------------------------|
A: --------------------55555555-55555555--|
E: --22222222-00000000--------------------|


G: -----------------------------------------------------------|
D: -----------------------------------------------------------|
A: --------------------------------------------------------5~-|
E: -5-555-55-55-5555--0-000-00-00-0000--2-222222--0-000000----|

Verse:

"When the clock strike 12...."
G: ------------------------------------------------------------------------------|
D: ------------------------------------------------------------------------------|
A: ----------------------------------------------------------5-5--5-5~-----7777--|
E: -5-5--5-5~-------0-0--0-0~---------2-2--2-2~---0-0--0-0~----------------------|


G: -----------------------------------------------------------------------|
D: -----------------------------------------------------------------------|
A: ----------------------------------------------------------5~-----7777--|
E: -55555555-55555555--00000000-00000000--22222222-222222--5--------------|


Chorus:

"Say it together now..."
G: ---------------------------------------------------------------------------------------|
D: -------------------------------2--222--2-0---------------------------------------------|
A: ---------5-----5--5555--0--000---------------------5-----5--5555--0----000-------------|
E: 
     Play 2x

Transition:

G: --------------------------|
D: ------------------2-2--2--|
A: --0000-0000-0000----------|
E: --------------------------|


Verse:

"Tonight we're gonna....."
G: ------------------------------------------------------------------------------|
D: ------------------------------------------------------------------------------|
A: ----------------------------------------------------------5-5--5-5~-----7777--|
E: -5-5--5-5~-------0-0--0-0~---------2-2--2-2~---0-0--0-0~----------------------|


G: -----------------------------------------------------------------------|
D: -----------------------------------------------------------------------|
A: ----------------------------------------------------------5~-----7777--|
E: -55555555-55555555--00000000-00000000--22222222-222222--5--------------|


Chorus:

"Say it together now..."
G: ---------------------------------------------------------------------------------------|
D: -------------------------------2--222--2-0---------------------------------------------|
A: ---------5-----5--5555--0--000---------------------5-----5--5555--0----000-------------|
E: 
     Play 2x


Breakdown

G: -------------------------------------------------------------------------------|
D: -------------------------------------------------------------------------------|
A: --22222222-22222444-55555555-55555555----22222222-22222444-55555555-55555555---|
E: -------------------------------------------------------------------------------|      
2x

(On the last time playing that, end on 7 and let ring out)


Chorus:

"Say it together now..."
G: ---------------------------------------------------------------------------------------|
D: -------------------------------2--222--2-0---------------------------------------------|
A: ---------5-----5--5555--0--000---------------------5-----5--5555--0----000-------------|
E: 
     Play 4x

Outro

G: -----------------------------------------------------------|
D: -----------------------------------------------------------|
A: --------------------------------------------------------5~-|
E: -5-555-55-55-5555--0-000-00-00-0000--2-222222--0-000000----|
Suggest correction
Give kudos to tab author, rate the tab!
1 2 3 4 5
comments
print report bad tab
guest
You may want to rate the tab now too:
select rating
Wanna post a correction for this tab? Suggest correction