Oops, an error
Loading. Please wait.

Aaron Kauffmna - None Just Something I Made Up Bass Tab

86 views 1 this week
no commentswrite comment
1 2 3 4 5
please rate
add to favorites
launch autoscroll
font size
0
reset
guitar tuner
Autoscroll
slow
fast
+/-
esc
set tempo
stop
Help us to improve Ultimate-Guitar.com Take our survey!
×
Author
Difficulty
intermediate
G:/----6-8-7----------- (intro--|
D:/----6-8-7--------------------|    x2
A:/----6-8-7--------------------|
E:/----6-8-7------66--88--------|
                             (VERSE)
D:/--------------------------------------------------|
G:/-------------------66666666-----------------------| x2
A:/----------77777777-----------4444444--2222222-----|
E:/--------------------------------------------------|

G:/----6-8-7-------------|
D:/----6-8-7-------------|   x2
A:/----6-8-7-------------|
E:/----6-8-7-----66--88--|

D:/----------------------|
G:/------0---------------|  x4
A:/---------2-0----------|
E:/-3-1------------------|

D:/--------------------------------------------------|
G:/-------------------66666666-----------------------| x2
A:/----------77777777-----------4444444--2222222-----|
E:/--66--88------------------------------------------|


D:/-----------------------|
G:/------0----------------|  x4
G:/---------2-0-----------|
E:/-3-1-------------------|

D:/----------------------|
G:/----------------------|  x3
A:/----------7-6-44------|
E:/--55--77--------------|

D:/--------------------------------------------------|
G:/-------------------66666666-----------------------| x2
A:/----------77777777-----------4444444--2222222-----|
E:/--66--88------------------------------------------|

D:/--------------------------|
G:/--------------------------|  x3
A:/----------7-6-44----------|
E:/--55--77------------------|
                    (Ending)
D:/-------------------------------|
G:/-------------------------------|
A:/---------7-6-4-2----------7~---|
E:/-55--77-----------55--77-------|
Suggest correction
Give kudos to tab author, rate the tab!
1 2 3 4 5
comments
print report bad tab
guest
You may want to rate the tab now too:
select rating
Wanna post a correction for this tab? Suggest correction