Oops, an error
Loading. Please wait.

Abandon Solitude - Final Thoughts Bass Tab

105 views 1 this week
no commentswrite comment
1 2 3 4 5
3 more votes to show rating
add to favorites
launch autoscroll
font size
0
reset
guitar tuner
Autoscroll
slow
fast
+/-
esc
set tempo
stop
Help us to improve Ultimate-Guitar.com Take our survey!
×
Tuning BDADG

Intro     r------- r------- r------- .
|--------|--------|--------|--------|--------|
|--------|--------|--------|--------|--------|
|--------|--------|--------|--------|--------|
|--------|2-------|2-------|2-------|2-------|
|--------|--------|--------|--------|--------|

Bridge                                       r-----
|----------------|----------------|----------------|
|----------------|----------------|----------------|
|----------------|----------------|----------------|X2
|2222222222222222|2222222222222222|22222222223-----|
|----------------|----------------|----------------|

Verse
|--------|--------|--------|--------|
|--------|--------|--------|--------|
|--------|--------|--------|--------|X2 (only played during first verse)
|22525225|22525757|22525225|2252/12\|
|--------|--------|--------|--------|

|--------|--------|--------|--------|
|--------|--------|--------|--------|
|--------|--------|--------|--------|X2
|22525225|22525757|22525225|2252/12\|
|--------|--------|--------|--------|

|--------|--------|--------|--------|
|--------|--------|--------|--------|
|--------|--------|--------|--------|X2
|22527297|22527297|22527297|2252/12\
|--------|--------|--------|--------|

Chorus
   r---
|--------|--------|--------|-------9|
|--------|5-4-45--|--------|5--7-79-|
|-------5|------4-|-------5|--------|
|2-2---2-|-------0|2-2---2-|--------|
|--------|--------|--------|--------|
   r                             r
|--------|--------|--------|--------|
|--------|5-4-45--|--------|5--7-7--|
|-------5|------4-|-------5|--------|
|2-2---2-|-------0|2-2---2-|--------|
|--------|--------|--------|--------|

Bridge                                       r-----
|----------------|----------------|----------------|
|----------------|----------------|----------------|
|----------------|----------------|----------------|X2
|2222222222222222|2222222222222222|22222222223-----|
|----------------|----------------|----------------|

Verse
|--------|--------|--------|--------|
|--------|--------|--------|--------|
|--------|--------|--------|--------|X2
|22525225|22525757|22525225|2252/12\|
|--------|--------|--------|--------|

|--------|--------|--------|--------|
|--------|--------|--------|--------|
|--------|--------|--------|--------|X2
|22527297|22527297|22527297|2252/12\
|--------|--------|--------|--------|

Chorus
   r---
|--------|--------|--------|-------9|
|--------|5-4-45--|--------|5--7-79-|
|-------5|------4-|-------5|--------|
|2-2---2-|-------0|2-2---2-|--------|
|--------|--------|--------|--------|
   r                             r
|--------|--------|--------|--------|
|--------|5-4-45--|--------|5--7-7--|
|-------5|------4-|-------5|--------|
|2-2---2-|-------0|2-2---2-|--------|
|--------|--------|--------|--------|

Breakdown
  r---------------
|--------|--------|--------|--------|
|--------|--------|--------|--------|
|--------|--------|--------|--------|
|-2------|--------|--------|--------|
|--------|--------|--------|--------|
 **   **     **    **       **   **     **    **
|--------|--------|--------|--------|--------|--------|
|--------|--------|--------|--------|--------|--------|
|--------|--------|--------|--------|--------|--------|
|22---22-|---22---|22--/12\|22---22-|---22---|22--/12\|
|--------|--------|--------|--------|--------|--------|

Silent Chorus
|--------|--------|--------|--------|
|--------|--------|--------|--------|
|--------|--------|--------|--------|X2
|22525225|22525757|22525225|2252/12\|
|--------|--------|--------|--------|

|--------|--------|--------|--------|
|--------|--------|--------|--------|
|--------|--------|--------|--------|X2
|22527297|22527297|22527297|2252/12\
|--------|--------|--------|--------|

Chorus
   r---
|--------|--------|--------|-------9|
|--------|5-4-45--|--------|5--7-79-|
|-------5|------4-|-------5|--------|
|2-2---2-|-------0|2-2---2-|--------|
|--------|--------|--------|--------|
   r                             r
|--------|--------|--------|--------|
|--------|5-4-45--|--------|5--7-7--|
|-------5|------4-|-------5|--------|
|2-2---2-|-------0|2-2---2-|--------|
|--------|--------|--------|--------|

Bridge                                       r-----
|----------------|----------------|----------------|
|----------------|----------------|----------------|
|----------------|----------------|----------------|X2
|2222222222222222|2222222222222222|22222222223-----|
|----------------|----------------|----------------|

Silent Verse
|--------|--------|--------|--------|
|--------|--------|--------|--------|
|--------|--------|--------|--------|X2
|22525225|22525757|22525225|2252/12\|
|--------|--------|--------|--------|

|--------|--------|--------|--------|
|--------|--------|--------|--------|
|--------|--------|--------|--------|X4
|22527297|22527297|22527297|2252/12\
|--------|--------|--------|--------|
 r-------
|--------|
|--------|
|--------|
|2-------|
|--------|
Suggest correction
Give kudos to tab author, rate the tab!
1 2 3 4 5
comments
print report bad tab
guest
You may want to rate the tab now too:
select rating
Wanna post a correction for this tab? Suggest correction