Oops, an error
Loading. Please wait.

Abolish The Unclean - Crucified In Blood Bass Tab

101 views 1 this week
no commentswrite comment
1 2 3 4 5
please rate
add to favorites
launch autoscroll
font size
0
reset
guitar tuner
Autoscroll
slow
fast
+/-
esc
set tempo
stop
Help us to improve Ultimate-Guitar.com Take our survey!
×
Author
Difficulty
Tuning
novice
B F# B E G# C#
Tuning:Drop B


Intro
D|-0~---0~---0~--------------------------------------------------|
E|---------------------------------------------------------------|
A|---------------------------------------------------------------|
B|---------------------------------------------------------------|

D|-22222-0-22222--1~--------0-77777-00--00000--666--0h5p4--------|
E|--------------------77777--------------------------------------|
A|---------------------------------------------------------------|
B|---------------------------------------------------------------|
Main Riff
D|-00000h2--00000h4--00000h54------000-----000--555-444----------|
E|-----------------------------777-----666----------------2~-----|x2
A|---------------------------------------------------------------|
B|---------------------------------------------------------------|
Outro
D|--00000000h2--1--000-------------------------------------------|
E|---------------------------------------------------------------|
A|---------------------------------------------------------------|
B|---------------------------------------------------------------|

This from my brand new band Abolish The Unclean this is our first song Curcified In 
please rate and we will get some mp3s up soon
Cheers
Drew

| /  slide up
| \  slide down
| h  hammer-on
| p  pull-off
| +  harmonic
| x  Mute note
| ~  let it ring
Suggest correction
Give kudos to tab author, rate the tab!
1 2 3 4 5
comments
print report bad tab
guest
You may want to rate the tab now too:
select rating
Wanna post a correction for this tab? Suggest correction