Oops, an error
Loading. Please wait.

Abril - Torno A Comencar Bass Tab

68 views 1 this week
no commentswrite comment
1 2 3 4 5
please rate
add to favorites
launch autoscroll
font size
0
reset
guitar tuner
Tab Pro tools
  • play this tab
  • loop segment
  • change instrument
  • show fretboard
  • metronome
×
Best way to learn
"Abril - Torno A Comencar"
Autoscroll
slow
fast
+/-
esc
set tempo
stop
Contributor
ABRIL - TORNO A COMENCAR
=========================
Standard Tuning

Intro
G|--------------------------------|
D|--------------------------------|
A|------4444-6666-4444-6666-2222--|
E|-2222---------------------------|

Estrofa x2
G|-----------------------|
D|-----------------------|
A|------2222-6666-4444---|
E|-2222------------------|

Pre-chorus
G|-------------|
D|-------------|
A|-5555-77-----|
E|---------00--|

Chorus
G|-----------------     |--------------------------------|
D|-----------------     |--------------------------------|
A|------4444-2222-- x2  |-9999-4444-5555-6666-2222-4444--|
E|-2222------------     |--------------------------------|

Estrofa x2
Pre-chorus
Chorus

Pont
G|------------------------------------------------------------|
D|----------------444-33-4-3------------------666-44-3-4-3----|
A|-6666-2222-4444------------4-6666-2222-4444--------------4--|
E|------------------------------------------------------------|

G|----------------------------------|
D|----------------11-11-11-999-88---|
A|-6666-9999-8888-----------------9-|
E|----------------------------------|

Chorus x2
Intro x2
comments
We did not receive enough feedback on this tab! Please rate:
print report bad tab
1 2 3 4 5
I want to post or [tab]
guest
You may want to rate the tab now too:
select rating
Please do not post tabs as comments. Select "correction" instead!