Oops, an error
Loading. Please wait.

Accusing Kyle - Dogs In Cars chords

19 views 1 this week
no commentswrite comment
1 2 3 4 5
3 more votes to show rating
add to favorites
×
Save as Personal and add changes to this tab that will be seen only by you. Learn more ›
×
You can save this tab as Personal to edit and correct it or add notes. All changes will be seen only by you. Learn more »
launch autoscroll
font size
0
reset
transpose
0
reset
display chords
guitar tuner
edit
Autoscroll
slow
fast
+/-
esc
set tempo
stop
Author
Strumming
There is no strumming pattern for this song yet. and get +5 IQ
[Intro]
e|-----3--2------------------------------------3-2------2-|
B|-----------3-0--0-3-0-3-0-3-0----------------------3----|
G|--0-------------------------------0---------------------|
D|--------------------------------------------------------|
A|--------------------------------------------------------|
E|--------------------------------------------------------|


[Verse]
e|--------------------------------------------------------------------|
B|-----0------0------0-----0--------0----------0---------0--------0---|
G|--0-----0------0------0---------------------------------------------|
D|-----------------------------4--------4----------2---------2--------|
A|--------------------------------------------------------------------|
E|--------------------------------------------------------------------|


[Intro]
G Bm F# Em C D


[Verse]
G
Another one for the mold,
Bm 
you're the cause of this, 
Bm 
you're the common cold. 
Em                              C              D
So why would you ask me to stay if I'm stuck forever anyway? 
G
I did my time,
Bm 
It left a tattoo on my mind,
Em
of that night when you,
C                   D 
finally crossed the line.


[Chorus]
 G         Bm
Separated from, 
 G         Bm
the guilt of what you've done.
Em                    C 
I've finally found my place, 
             D                G
It's with my back against the wall,
            Bm 
you hold me down,
                         Em
you never had my back at all, 
             C
you hold me down, 
            D                    G
and yet my feet barely touch the ground. 


[Verse]
G                     Bm
Step back and fall in line, 
                             Em
it's a bitter end to a great decline, 
                     C
a chance at joy in a crowded room,
         D           G
is all I ever really knew. 


[Outro]
G     Bm     Em     C
I wanna be as happy as a dog in a car 
G     Bm     Em     C
I wanna be as happy as a dog in a car 
G     Bm     Em     C
I wanna be as happy as a dog in a car 
 D              G
but you hold me down.

            
            
Suggest correction
Creating personal tab
Creating personal tab
You can edit any tab online and save it as your Personal.

You can edit, replace or remove any tab part or add personal notes – all changes will be seen only by you.

Personal tabs can be accessed anytime from any device, even offline.
Learn more »
Give kudos to tab author, rate the tab!
1 2 3 4 5
comments
print report bad tab
guest
You may want to rate the tab now too:
select rating
Wanna post a correction for this tab? Suggest correction