Oops, an error
Loading. Please wait.

Acquiesce - No Way Out Bass Tab

61 views 1 this week
no commentswrite comment
1 2 3 4 5
please rate
add to favorites
launch autoscroll
font size
0
reset
guitar tuner
Autoscroll
slow
fast
+/-
esc
set tempo
stop
Help us to improve Ultimate-Guitar.com Take our survey!
×
Author
Difficulty
intermediate
This is a song by Acquiesce called No Way Out, you can listen to it here:
http://soundcloud.com/shaun-may/sets/acquiesce-demo-1


I am the bassist in Acquiesce, and have tabbed this myself, so apart from missing out 
fills that I played in the actual recording, this should be 100% accurate!

Tempo: Allegro (~120bpm)

Intro

(Slowly getting louder)

I wish I could tell you...
G|--------------------------------------------------|
D|--------------------------------------------------|
A|--3~----------\1~----------/6~---------/8~--------|
E|--------------------------------------------------|x6

G|--------------------------------------------------|
D|--------------------------------------------------|
A|--3~----------2~-----------/6~----------/8~-------|
E|--------------------------------------------------|

G|--------------------------------------------------|
D|--------------------------------------------------|
A|--3~---------\1~----------/6~---------/8~---------|
E|--------------------------------------------------|

Pre-Chorus

[Mostly Muted x2 Played x2] [11 = Eleven]

G|--------------------------------------------------|
D|--------------------------------------------------|
A|--6----------/8-----------/11----------11---------|
E|--------------------------------------------------| x4

Chorus

[Play the double notes quickly]

So when you don't know..

G|-----------------|----------|----------|-------------|
D|-----------------|----------|----------|-------------|
A|---1010-10-10--10|-99-9-9--9|-88-8-8--8|-77-7-7--7---|
E|--8----8--8--88--|7--7-7-77-|6--6-6-66-|5--5-5-55----| x4

G|-----------------|---------------|----------|-------------|
D|-----------------|---------------|----------|-------------|
A|---1111-11-11--11|-1010-10-10--10|-99-9-9--9|-88-8-8--8---|
E|--9----9--9--99--|8----8--8--88--|7--7-7-77-|6--6-6-66----| x2

Bridge

G|--------------------------------------------------|
D|--------------------------------------------------|
A|--------------------------------------------------|
E|-4~----------\3~-----------\2~-----------0~~~-----|

[Drum Fill]

G|------------------|-----------------|-----------------|-----------------|
D|-7h9999-77h9999-x2|-----------------|-----------------|7h9999-77h9999-x2|
A|------------------|7h9999-77h9999-x2|5h7777-55h7777-x2|-----------------|
E|------------------|-----------------|-----------------|-----------------|

Repeat several times

Bridge Ends on

G|-------------|
D|-------------|
A|-999999999---|
E|-------------|

Guitar Solo [Outro]

[Basically]
G|--------|--------|--------|--------|
D|--------|--------|--------|--------|
A|22222222|--------|--------|--------|
E|--------|22222222|00000000|00000000|

[Play with fills, such as..]
G|--------|--------|--------|--------|
D|--------|--------|--------|--------|
A|22222224|--------|--------|---02420|
E|--------|22222420|00000000|024-----|

End on
( ^ = Natural Harmonic)
G|--------|
D|--------|
A|-7^~~~--|
E|-0~~~---|
Suggest correction
What's this?
You can suggest a correction to this tab. Community and Mods will review your correction and vote to approve or reject it.
comments
We did not receive enough feedback on this tab! Please rate:
print report bad tab
1 2 3 4 5
guest
You may want to rate the tab now too:
select rating
Please do not post tabs as comments. Select "correction" instead!