Oops, an error
Loading. Please wait.

Action Static - Avalanche Bass Tab

54 views 1 this week
1 commentread comment
1 2 3 4 5
2 more votes to show rating
add to favorites
launch autoscroll
font size
0
reset
guitar tuner
Autoscroll
slow
fast
+/-
esc
set tempo
stop
Help us to improve Ultimate-Guitar.com Take our survey!
×
Author
Difficulty
advanced
----------------------------------------------------------------------------
			     AVALANCHE - Action Static
----------------------------------------------------------------------------

Tabbed By : Parker Dellinger
e-mail: metalsincebirth@gmail.com
Info: This is a bass tapping solo that i wrote. Please email me if you want to use 
this somehow in public. thanks!

Tuning: Standard
   T       T       T       T       T       T       T       T
G|-14-9-7--14-9-7--14-9-7--14-9-7--14-9-7--14-9-7--14-9-7--14-9-7----------|
D|*------------------------------------------------------------------------|
A|*------------------------------------------------------------------------|
E|-------------------------------------------------------------------------|

   T       T       T       T       T       T       T       T
G|-12-9-7--12-9-7--12-9-7--12-9-7--12-9-7--12-9-7--12-9-7--12-9-7----------|
D|-------------------------------------------------------------------------|
A|-------------------------------------------------------------------------|
E|-------------------------------------------------------------------------|

   T       T       T       T       T       T       T       T
G|-14-9-7--14-9-7--14-9-7--14-9-7--14-9-7--14-9-7--14-9-7--14-9-7----------|
D|-------------------------------------------------------------------------|
A|-------------------------------------------------------------------------|
E|-------------------------------------------------------------------------|

   T       T       T       T       T       T       T       T
G|-13-9-7--13-9-7--13-9-7--13-9-7--13-9-7--13-9-7--13-9-7--13-9-7----------|
D|------------------------------------------------------------------------*|
A|------------------------------------------------------------------------*|
E|-------------------------------------------------------------------------|

   T       T        T        T        T        T        T        T
G|-14-11-9-14-11-9--14-11-9--14-11-9--14-11-9--14-11-9--14-11-9--14-11-9#--|
D|*------------------------------------------------------------------------|
A|*------------------------------------------------------------------------|
E|-------------------------------------------------------------------------|

   T       T       T       T       T       T       T       T
G|-14-9-7--14-9-7--14-9-7--14-9-7--14-9-7--14-9-7--14-9-7--14-9-7#---------|
D|------------------------------------------------------------------------*|
A|------------------------------------------------------------------------*|
E|-------------------------------------------------------------------------|

   T       T        T        T        T        T        T        T
G|-14-11-9-14-11-9--14-11-9--14-11-9--14-11-9--14-11-9--14-11-9--14-11-9---|
D|*------------------------------------------------------------------------|
A|*------------------------------------------------------------------------|
E|-------------------------------------------------------------------------|

   T       T        T        T        T        T        T        T
G|-13-11-9-13-11-9--13-11-9--13-11-9--13-11-9--13-11-9--13-11-9--13-11-9---|
D|------------------------------------------------------------------------*|
A|------------------------------------------------------------------------*|
E|-------------------------------------------------------------------------|
   T
G|-14----------------------------------------------------------------------|
D|------0------------------------------------------------------------------|
A|-------------------------------------------------------------------------|
E|-------------------------------------------------------------------------|


| /  slide up
| \  slide down
| h  hammer-on
| p  pull-off
| ~  vibrato
| +  harmonic
| x  Mute note
| T  Tap Note
| |*-*| Repeat section
| #  Stop Abruptly
===============================================================================
Suggest correction
Give kudos to tab author, rate the tab!
1 2 3 4 5
comments
print report bad tab
1 comment total.
0 reply
arm the masses 52 Dec 22, 2009 01:34 PM

the first line instead of a 14, it's a 13. my bad

guest
You may want to rate the tab now too:
select rating
Wanna post a correction for this tab? Suggest correction