Oops, an error
Loading. Please wait.

Add One Decibal - Trapped In The Fog Bass Tab

52 views 1 this week
no commentswrite comment
1 2 3 4 5
3 more votes to show rating
add to favorites
launch autoscroll
font size
0
reset
guitar tuner
Autoscroll
slow
fast
+/-
esc
set tempo
stop
Help us to improve Ultimate-Guitar.com Take our survey!
×
Author
Difficulty
novice
                             
 Intro                                             

|-----------------|-------------|-----------|--------------|
|-----------------|-------------|-----------|--------------|
|--------9h11-9---|---—---7h9-7-|---—---5h7-|-7-7b-7-7p5---|
|--9—-9h11--------|--7-7h9------|--5-5h7----|------------7-|


Verses                   
      
|-------------------------|--------------------| 
|-------------------------|--------------------| 
|-----—---—--------11-9---|---—--—--------9-7--| 
|--/9---9---9—-9—-9—---11-|--7—-7—-7-7-7-----9-| 

                                      Guitar Fill

|-----------------|-----------------|-----------------------|
|-----------------|-----------------|-----------------------|
|-----------------|------------7----|-----------------------|
|---9----7-7---5--|---9----7-7------|---------REST----------|


Chorus

|--------------------------------------|
|--------------------------------------|
|----—--------—---------—---------—-9--|
|--9---9--9--9—--9--9--9—--9--9—9h11—--|


|--------------------------------------|
|--------------------------------------|
|----------------------------------7---|
|--7---7--7--7---7--7--7---7--7—7h9----|
Suggest correction
Give kudos to tab author, rate the tab!
1 2 3 4 5
comments
print report bad tab
guest
You may want to rate the tab now too:
select rating
Wanna post a correction for this tab? Suggest correction