Oops, an error
Loading. Please wait.

Adementa - Addicted Bass Tab

85 views 1 this week
no commentswrite comment
1 2 3 4 5
please rate
add to favorites
launch autoscroll
font size
0
reset
guitar tuner
Tab Pro tools
  • play this tab
  • loop segment
  • change instrument
  • show fretboard
  • metronome
Autoscroll
slow
fast
+/-
esc
set tempo
stop
Contributor
Difficulty
Tuning
intermediate
D# G# C# F# A# D#
Adementa- Addicted (Bass Guitar)

F#----------------------------------------------------------------------|
C#----------------------------------------------------------------------|
G#----------------------------------------------------------------------|
D#---5-4-5---7-8-7---5-4-5---5-4---1-0----------------------------------|x4

F#----------------------------------------------------------------------|
C#----------------------------------------------------------------------|
G#--------------8---7---5---3---2---------------------------------------|
D#---1---0x2------------------------------------------------------------|

F#----------------------------------------------------------------------|
C#----------------------------------------------------------------------|
G#----------------------------------------------------------------------|
D#----4/5555x3---555---5\111111---4---0000000---------------------------|x2

F#----------------------------------------------------------------------|
C#--------7---9---9---10---10---12---5---7----------12---14-------------|
G#----------------------------------------------------------------------|
D#---5----------8---------10--------4-------------12--------------------|x2

F#----------------------------------------------------------------------|
C#----------------------------------------------------------------------|
G#----------------------------------------------------------------------|
D#---12---10---9---10---9---7---9---7---4---5---------------------------|

F#----------------------------------------------------------------------|
C#----------------------------------------------------------------------|
G#----------------------------------------------------------------------|
D#---5x4---5-1-4-0-1-4x2---5-7-8-7-5-7/10-8-7tp-8-5---------------------|x4

F#----------------------------------------------------------------------|
C#----------------------------------------------------------------------|
G#----------------------------------------------------------------------|
D#---5---8---5---8---5---8---4------------------------------------------|

F#----------------------------------------------------------------------|
C#----------------------------------------------------------------------|
G#----------------------------------------------------------------------|
D#---5555555/8888888\5555555/8\5/8\4------------------------------------|x4

F#---------------------------------------------------------------------|
C#---------------------------------------------------------------------|
G#---------------------------------------------------------------------|
D#---8\5/8\4/8\5/8\4---5--------5--------------------------------------|

F#----------------------------------------------------------------------|
C#--------7---9---9---10---10---12---5---7----------12---14-------------|
G#----------------------------------------------------------------------|
D#---5----------8---------10--------4-------------12--------------------|x2
Guitar solo
F#----------------------------------------------------------------------|
C#----------------------------------------------------------------------|
G#----------------------------------------------------------------------|
D#----4/5555x3---555---5\111111---4---0000000x2----5\-------------------|

Pretty easy song! more tabs coming soon! have fun! =]
comments
We did not receive enough feedback on this tab! Please rate:
print report bad tab
1 2 3 4 5
I want to post or [tab]
guest
You may want to rate the tab now too:
select rating
Please do not post tabs as comments. Select "correction" instead!