Oops, an error
Loading. Please wait.

Adementa - Prey Bass Tab

59 views 1 this week
no commentswrite comment
1 2 3 4 5
please rate
add to favorites
launch autoscroll
font size
0
reset
guitar tuner
Tab Pro tools
  • play this tab
  • loop segment
  • change instrument
  • show fretboard
  • metronome
×
Best way to learn
"Adementa - Prey"
Autoscroll
slow
fast
+/-
esc
set tempo
stop
Contributor
Difficulty
Tuning
intermediate
D# G# C# F# A# D#
Adementa- Prey (Bass Guitar)

F#----------------------------------------------------------------------|
C#----------------------------------------------------------------------|
G#-----------------/666-------------/333--------------------------------|
D#---\---0-0-3-2---------0-0-3-2----------------------------------------|x2

F#----------------------------------------------------------------------|
C#----------------------------------------------------------------------|
G#----------------------------------------------------------------------|
D#---00033220000000000000000--------------------------------------------|x4

F#---------------------------------------------------------------------|
C#---------------------------------------------------------------------|
G#---------7x2---666666---2/10-10\9-6/7--33333333333-------------------|
D#-00000000------------------------------------------------------------|

F#-----------------------------------------------------------------------|
C#-----------------------------------------------------------------------|
G#--2---------------2----------------------------------------------------|
D#----0-3-2-0-2-3----0-3-2-0-2-3-3-2-0-----------------------------------|x2
Well rested demon….
F#---------------------8h10-8--------------------------------------------|
C#----9--10---9-10-----------10-9----9----10-----------------------------|
G#------------9-10-----------------77---77-------------------------------|
D#-00-00---00---------------------------------333-2-0-222-35-------------|x4
Your trying to take me down
F#----------------------------------------------------------------------|
C#----------------------------------------------------------------------|
G#----------7x2---666666---2/10-10\9-6/7--33333333333-------------------|
D#-00000000-------------------------------------------------------------|

F#----------------------------------------------------------------------|
C#----------------------------------------------------------------------|
G#--2---------------2---------------------------------------------------|
D#----0-3-2-0-2-3----0-3-2-0-2-3-3-2-0----------------------------------|x2
Hey there demon
F#-------------------8h10-8---------------------------------------------|
C#----9--10---9-10---------10-9----9----10------------------------------|
G#-------------9-10--------------77---77--------------------------------|
D#-00-00---00---------------------------------333-2-0-222-35------------|x4

F#---------------------------------------------------------------------|
C#---------------------------------------------------------------------|
G#-------/7-------6---6h7-6h7\3---332---2------------------------------|
D#-0---0---0---0------------------------------32023--------------------|

F#----------------------------------------------------------------------|
C#----------------------------------------------------------------------|
G#--2---------------2---------------------------------------------------|
D#----0-3-2-0-2-3----0-3-2-0-2-3-3-2-0----------------------------------|x2
Your trying to take me down, DOWN!
F#---------------------------------------------------------------------|
C#---------------------------------------------------------------------|
G#-----------151515151515-----------141414141414-----------------------|
D#-1211012110-------------1211012110-----------------------------------|

F#---------------------------------------------------------------------|
C#---------------------------------------------------------------------|
G#-----------121212121212-----------101010101010-----------------------|
D#-1211012110-------------1211012110-----------------------------------|


But theres still time for me, to save myself!
F#---------------------------------------------------------------------|
C#---------------------------------------------------------------------|
G#-----------151515151515-----------141414141414-----------------------|
D#-1211012110-------------1211012110-----------------------------------|

F#----------------------------------------------------------------------|
C#-----------131313131313-----------141414141414------------------------|
G#----------------------------------------------------------------------|
D#-1211012110-------------1211012110------------------------------------|x2
Guitar solo 1
F#----------------------------------------------------------------------|
C#----------------------------------------------------------------------|
G#-------------------/6666----------------------------------------------|
D#-0000----000323/532-------00323/532-----------------------------------|x4
Duel harmony solo
F#----------------------------------------------------------------------|
C#----------------------------------------------------------------------|
G#-------/7-777h9-7h9-6-66-666h7-6h7-3-33-333h5-3h5---------------------|
D#-0---0----------------------------------------------------------------|

F#----------------------------------------------------------------------|
C#----------------------------------------------------------------------|
G#-2-22-2---------------------------------------------------------------|
D#----------32023-------------------------------------------------------|

F#----------------------------------------------------------------------|
C#----------------------------------------------------------------------|
G#--2-----------------2-------------------------------------------------|
D#----0-3-2-0-2-3----0-3-2-0-2-3-3-2-0----------------------------------|
ALL pause, hi-hat hits
F#----------------------------------------------------------------------|
C#----------------------------------------------------------------------|
G#-------------7-x2---666666---2/10-10\9-6/7--33333333333---------------|
D#-00000000-------------------------------------------------------------|

F#----------------------------------------------------------------------|
C#----------------------------------------------------------------------|
G#--2-----------------2-------------------------------------------------|
D#----0-3-2-0-2-3------0-3-2-0-2-3-3-2-0--------------------------------|x2
comments
We did not receive enough feedback on this tab! Please rate:
print report bad tab
1 2 3 4 5
I want to post or [tab]
guest
You may want to rate the tab now too:
select rating
Please do not post tabs as comments. Select "correction" instead!