Oops, an error
Loading. Please wait.

Adequate Seven - Minor Details Bass Tab

252 views 1 this week
no commentswrite comment
1 2 3 4 5
3 more votes to show rating
add to favorites
launch autoscroll
font size
0
reset
guitar tuner
Autoscroll
slow
fast
+/-
esc
set tempo
stop
Help us to improve Ultimate-Guitar.com Take our survey!
×
Author
Difficulty
intermediate
Im not sure this tba is completely correct its the first tab i've ever attempted but its
awesome bass line as are the majority of there songs any bassist needs to give this
a listen and maybe tab some of the songs out would be great as i dont know if you can 
sheet musci for them anyways here its

(id say this is about 75% correct....but im sure you can figure it out
(Listen to song for timing)

Verse

G---9-9--------------9-9--------------------------------------------------|
D--9-9-----7--7-----9-9-----7-7-9-7---------------------------------------|
A-7-----7-5--5-----7----------------10-7---7------------------------------|
E--------7-------------------------------10-------------------------------|

Bridge??

G----------------|
D----5-5----7-7--|
A----------------|
E-3-3----5-5-----|

i honestly dont know what he plays on the chorus its pretty simple though with quite 
slap fills

G----------                           ----------------|
D----------                           --5-----0---3---|    (Slap)
A--7--7-5-3                           ----3-5--3-5----|
E---------- with fills something like ----------------|


then near the end (not sure bout this part)

G---------------------------------------------------------------|
D---99-7-----------------------5-----7------9-------11----------|
A--7------9-7----5-7-5------------------------------------------|
E-----------------------7-5-0-3--0-5---0-7-----0-9--------------|

Thats about all i got of it so if your like me and love adequate seven please give
it for me ago ;)


Tabbed By Razuache
Suggest correction
Give kudos to tab author, rate the tab!
1 2 3 4 5
comments
print report bad tab
guest
You may want to rate the tab now too:
select rating
Wanna post a correction for this tab? Suggest correction