Oops, an error
Loading. Please wait.

Aeveron - Autoapotheosis Tab

162 views 1 this week
no commentswrite comment
1 2 3 4 5
please rate
add to favorites
launch autoscroll
font size
0
reset
how to read this tab
guitar tuner
Tab Pro tools
  • play this tab
  • loop segment
  • change instrument
  • show fretboard
  • metronome
×
Best way to learn
"Aeveron - Autoapotheosis"
Autoscroll
slow
fast
+/-
esc
set tempo
stop
Contributor
Difficulty
Tuning
intermediate
D A D G B E
Aeveron
Autoapotheosis
Existential Dead End EP
2009

Awesome song that’s really underappreciated. If you’re one of the handful of
people who looks at this tab within the next year, please rate and comment so I
can feel useful. 

See bottom for explanation of symbols.

Tuning: Drop D (DADGBE)

INTRO

Wait through the poem… then rhythm comes in here…

  That the play is the tragedy man… and its hero the conqueror worm!
|-------------------------------------------------------------------|
|-------------------------------------------------------------------|
|-------------------------------------------------------------------|
|--------------------------------------------------------------12\--|
|--------------------------------------------------------------12\--|
|--------------------------------------------------------------12\--|

||-------------------------------------------------------------------|
||-------------------------------------------------------------------|
||-------------------------------------------------------------------|
||-0~~~~~~~~~~~~~~~~~~~~~~~~~~~~~~~~~~~~~~~~~~~~~~~~~~~~~~~~~~~~~~~~-|
||-0~~~~~~~~~~~~~~~~~~~~~~~~~~~~~~~~~~~~~~~~~~~~~~~~~~~~~~~~~~~~~~~~-|
||-0~~~~~~~~~~~~~~~~~~~~~~~~~~~~~~~~~~~~~~~~~~~~~~~~~~~~~~~~~~~~~~~~-|
                                                                            
|-------------------------------------------------------------------||
|-------------------------------------------------------------------||
|-------------------------------------------------------------------||
|-9~~~~~~~~~~~~~~~~~~~~~~~~~~~~~~~~-8~~~~~~~~~~~~~~---10~~\---------||
|-9~~~~~~~~~~~~~~~~~~~~~~~~~~~~~~~~-8~~~~~~~~~~~~~~---10~~\---------||
|-9~~~~~~~~~~~~~~~~~~~~~~~~~~~~~~~~-8~~~~~~~~~~~~~~-8---------------||x2
                                                          *   


| Lead
||-------------------------------------------------------------------|
||-------------------------------------------------------------------|
||-------------------------------------------------------------------|
||-------------------------------------------------------------------|
||-------------------------------------------------------------------|
||-0---0---0---0---0---0-0-0-0-0-0---0---0---0---0---0---0-0-0-0-0-0-|
|  *   *   *   *   *   * * * * * *   *   *   *   *   *   * * * * * *
| Rhythm
||-------------------------------------------------------------------|
||-------------------------------------------------------------------|
||-------------------------------------------------------------------|
||-0~~~~~~~~~~~~~~~~~~~~~~~~~~~~~~~~~~~~~~~~~~~~~~~~~~~~~~~~~~~~~~~~-|
||-0~~~~~~~~~~~~~~~~~~~~~~~~~~~~~~~~~~~~~~~~~~~~~~~~~~~~~~~~~~~~~~~~-|
||-0~~~~~~~~~~~~~~~~~~~~~~~~~~~~~~~~~~~~~~~~~~~~~~~~~~~~~~~~~~~~~~~~-|

|-------------------------------------------------------------------||
|-------------------------------------------------------------------||
|-------------------------------------------------------------------||
|-9~~~~~~~~~~~~~~~~~~~~~~~~~~~~~~~~-8~~~~~~~~~~~~~~---10~~\---------||
|-9~~~~~~~~~~~~~~~~~~~~~~~~~~~~~~~~-8~~~~~~~~~~~~~~---10~~\---------||
|-9~~~~~~~~~~~~~~~~~~~~~~~~~~~~~~~~-8~~~~~~~~~~~~~~-8---------------||
|                                                   * 
|-------------------------------------------------------------------||
|-------------------------------------------------------------------||
|-------------------------------------------------------------------||
|-----------------------------------------------------10-10~~~------||
|-----------------------------------------------------10-10~~~------||
|-9---9---9---9---9---9-9-9-9-9-9---8---8---8---8---8---------------||x2
  *   *   *   *   *   * * * * * *   *   *   *   *   *              

Both guitars:
||-------------------------------------------------------------------|
||-------------------------------------------------------------------|
||-------------------------------------------------------------------|
||-------------------------------------------------------------------|
||-0---0---0---0---0---0-0-0-0-0-0---0---0---0---0---0---0-0-0-0-0-0-|
||-0---0---0---0---0---0-0-0-0-0-0---0---0---0---0---0---0-0-0-0-0-0-|
   *   *   *   *   *   * * * * * *   *   *   *   *   *   * * * * * *

|-------------------------------------------------------------------||
|-------------------------------------------------------------------||
|-------------------------------------------------------------------||
|-----------------------------------------------------10-10~~~------||
|-9---9---9---9---9---9-9-9-9-9-9---8---8---8---8---8-10-10~~~------||
|-9---9---9---9---9---9-9-9-9-9-9---8---8---8---8---8---------------||x2
  *   *   *   *   *   * * * * * *   *   *   *   *   *              

VERSE PART 1

Both guitars:
||------------------------------------------|
||------------------------------------------|
||------------------------------------------|
||-0077777700770088877700777777007700888777-|
||------------------------------------------|
||------------------------------------------|

|----------------------------------------------------||
|----------------------------------------------------||
|----------------------------------------------------||
|----777777--77--888777----888888----101010888777888-||
|-888------88--88------1010------1010----------------||
|----------------------------------------------------||x2
Those are 10s, not 1s and 0s. If it’s easier for you, this can all be 
played on one string - just replace the 8s and 10s on the A string with
3s and 5s on the high D. 

VERSE PART 2

|-------------------------------------------------------|
|-------------------------------------------------------|
|-------------------------------------------------------|
|-------------------------------------------------------|
|-00-00-00-00-00-00---------00-00-00-00-----------------|
|-00-00-00-00-00-00-3-1-5-3-00-00-00-00-3-1-0-5-3-0-8-7-|
  ** ** ** ** ** **         ** ** ** ** 

|-------------------------------------------------------|
|-------------------------------------------------------|
|-------------------------------------------------------|
|---------------------------------------/8~-7-5---------|
|-00-00-00-00-00-00---------00-00-00-00---------8-7-5-5*|
|-00-00-00-00-00-00-3-1-5-3-00-00-00-00-----------------|
  ** ** ** ** ** **         ** ** ** ** 

|-------------------------------------------------------|
|-------------------------------------------------------|
|-------------------------------------------------------|
|-------------------------------------------------------|
|-00-00-00-00-00-00-00-00-11-11-11-11-33-33-11-11-------|
|-00-00-00-00-00-00-00-00-11-11-11-11-33-33-11-11-------|
  ** ** ** ** ** ** ** ** ** ** ** ** ** ** ** **
0s, 1s and 3s. 

|-------------------------------------------------------|
|-------------------------------------------------------|
|-------------------------------------------------------|
|-------------------------------------------------5-----|
|-00-00-00-00-00-00-00-00-8-----8-----7-----5-7-8-------|
|-00-00-00-00-00-00-00-00---0-0---0-0---0-0-------------|
  ** ** ** ** ** ** ** **   * *   * *   * * 

|-------------------------------------------------------|
|-------------------------------------------------------|
|-------------------------------------------------------|
|-------------------------------------------------------|
|-00-00-00-00-00-00-00-00-33-33-33-33-11-11-11-11-------|
|-00-00-00-00-00-00-00-00-33-33-33-33-11-11-11-11-------|
  ** ** ** ** ** ** ** ** ** ** ** ** ** ** ** **

|-------------------------------------------------------|
|-------------------------------------------------------|
|-------------------------------------------------------|
|-------------------------------------------------5-----|
|-00-00-00-00-00-00-00-00-8-----8-----7-----5-7-8-------|
|-00-00-00-00-00-00-00-00---0-0---0-0---0-0-------------|
  ** ** ** ** ** ** ** **   * *   * *   * * 

CHORUS

|Both guitars (Rhythm plays the same notes slightly faster throughout 
|the chorus, except where noted, playing 5 notes for every 4 of lead’s.)
||-----------------------------------||
||-----------------------------------||
||-----------------------------------||
||-----------------------------------||
||-5-5-5-5-5-5-5-5-5-8-8-8-7-7-8-8-8-||
||-----------------------------------||x2

|Lead
|---------------------------------------------------------------|
|---------------------------------------------------------------|
|---------------------------------------------------------------|
|---------------------------------------------------------------|
|-----8------8------8------8-8-8-8-8-8-8-8-8-10-10-10-8-8-8-8-8-|
|-0-0---00-0---00-0---00-0--------------------------------------|
| * *   ** *   ** *   ** *
|Rhythm (Play the 3-5-7s until lead finishes the palm muting)
|----------------------------------------------|
|----------------------------------------------|
|----------------------------------------------|
|----------------------------------------------|
|-33355577773335557777888888888810101010888888-|
|----------------------------------------------|

Both:
|-----------------------------------|
|-----------------------------------|
|-----------------------------------|
|-----------------------------------|
|-5-5-5-5-5-5-5-5-5-8-8-8-7-7-8-8-8-|
|-----------------------------------|

|Lead
|------------------------------------------------------------|
|------------------------------------------------------------|
|------------------------------------------------------------|
|------------------------------------------------------------|
|-----8------8------8------8-7-7-7-7-7-7-7-7-8-8-8-7-7-8-8-8-|
|-0-0---00-0---00-0---00-0-----------------------------------|
| * *   ** *   ** *   ** *
|Rhythm (Play the 8s until lead finishes the palm muting)
|-------------------------------------------|
|-------------------------------------------|
|-------------------------------------------|
|-------------------------------------------|
|-88888888888888888888777777777788887778888-|
|-------------------------------------------|

Both:
|-------------------------------------|
|-------------------------------------|
|-------------------------------------|
|-------------------------------------|
|-5-5-5-5-7-7-7-7-8-8-8-8-10-10-10-10-|
|-------------------------------------|

BRIDGE

|Lead (You’ll still sound pretty good without the alt picking.)
|----------------------------------------------------------------------|
|----------------------------------------------------------------------|
|----------------------------------------------------------------------|
|---------8-7-5-----------7-8-7-5---------8-7-5---7-8-7-5--------------|
|-7-557-8-------8-7-5-7-8---------7-5-7-88------8---------7-5-7-8------|
|----------------------------------------------------------------------|
| * *** *         * * * *         * * * **                * * *  
|Rhythm
|----------------------------------------------------------------------|
|----------------------------------------------------------------------|
|----------------------------------------------------------------------|
|-0-0-----0-0-----0-0-----0-0-----0-0-----0-0-----0-0-----0-0-0-12-----|
|-0-0-----0-0-----0-0-----0-0-----0-0-----0-0-----0-0-----0-0-0-12-----|
|-0-0-----0-0-----0-0-----0-0-----0-0-----0-0-----0-0-----0-0-0-12-----|
  * *     * *     * *     * *     * *     * *     * *     * * * 

|(The slides at the end should come from far below. Like, 1.)
|----------------------------------------------------------------------|
|----------------------------------------------------------------------|
|----------------------------------------------------------------------|
|---------8-7-5-----------7-8-7-5---------8-7-5---7-8-7-5--------------|
|-7-5-7-8-------8-7-557-8---------7-557-8-------8---------7-8-/5~------|
|----------------------------------------------------------------------|
| * * * *         * *** *         * *** *                        
|----------------------------------------------------------------------|
|----------------------------------------------------------------------|
|----------------------------------------------------------------------|
|-0-0-----0-0-----0-0-----0-0-----0-0-----0-0--------------------------|
|-0-0-----0-0-----0-0-----0-0-----0-0-----0-0--------------------------|
|-0-0-----0-0-----0-0-----0-0-----0-0-----0-0-----5-8-7-5-3-0-/5~------|
  * *     * *     * *     * *     * *     * *                   


VERSE PART 2 REDUX

Both guitars:
|-------------------------------------------------------|
|-------------------------------------------------------|
|-------------------------------------------------------|
|-------------------------------------------------------|
|-00-00-00-00-00-00---------00-00-00-00-----------------|
|-00-00-00-00-00-00-3-1-5-3-00-00-00-00-3-1-0-5-3-0-8-7-|
  ** ** ** ** ** **         ** ** ** ** 

|--------------------------------------------------------|
|--------------------------------------------------------|
|--------------------------------------------------------|
|----------------------------------------/8~-7-5---------|
|-00-00-00-00-00-00-----------0-00-00-00---------8-7-5-5*|
|-00-00-00-00-00-00-1-3-5-7b8-0-00-00-00-----------------|
  ** ** ** ** ** ** * * *     * ** ** **  

|-------------------------------------------------------|
|-------------------------------------------------------|
|-------------------------------------------------------|
|-------------------------------------------------------|
|-00-00-00-00-00-00-00-00-33-33-33-33-11-11-11-11-------|
|-00-00-00-00-00-00-00-00-33-33-33-33-11-11-11-11-------|
  ** ** ** ** ** ** ** ** ** ** ** ** ** ** ** **

|-------------------------------------------------------|
|-------------------------------------------------------|
|-------------------------------------------------------|
|-------------------------------------------------5-----|
|-00-00-00-00-00-00-00-00-8-----8-----7-----5-7-8-------|
|-00-00-00-00-00-00-00-00---0-0---0-0---0-0-------------|
  ** ** ** ** ** ** ** **   * *   * *   * * 

|-------------------------------------------------------|
|-------------------------------------------------------|
|-------------------------------------------------------|
|-------------------------------------------------------|
|-00-00-00-00-00-00-00-00-11-11-11-11-33-33-11-11-------|
|-00-00-00-00-00-00-00-00-11-11-11-11-33-33-11-11-------|
  ** ** ** ** ** ** ** ** ** ** ** ** ** ** ** **

|-------------------------------------------------------|
|-------------------------------------------------------|
|-------------------------------------------------------|
|-------------------------------------------------5-----|
|-00-00-00-00-00-00-00-00-8-----8-----7-----5-7-8-------|
|-00-00-00-00-00-00-00-00---0-0---0-0---0-0-------------|
  ** ** ** ** ** ** ** **   * *   * *   * * 

THE OTHER BRIDGE 

Played really fast, both guitars on the low D (other strings removed for simplicity‘s sake): 

|-00000000000000003333555588888888777777775555555555555555-|

|-33335555888888888888888877777777333333330000000000000000-|

|-33335555888888888888888877777777555555553333555500000000-5-7-8-7-|
                                                           * * * * 
|-00000000000000003333555588888888777777775555555555555555-|

|-33335555888888888888888877777777333333330000000000000000-|

|-333355558888888888888888777777775555555533335555-1-3-5-3-1-3-5-3-|
                                                   * * * * * * * * 

CHORUS - same as last time, just play the 5-7-8-10 end part twice. 

BREAKDOWN 

||----------------------------------------------------------------||
||----------------------------------------------------------------||
||----------------------------------------------------------------||
||-0~~~~~~~~~~~~~-1~~~~~~~~~~~~~~-10~~~~~~~~~~~~~-5~~~~~----------||
||-0~~~~~~~~~~~~~-1~~~~~~~~~~~~~~-10~~~~~~~~~~~~~-5~~~~~----------||
||-0~~~~~~~~~~~~~-1~~~~~~~~~~~~~~-10~~~~~~~~~~~~~-5~~~~~-5-/9b11~-||x6
                                                         *
VERSE PART 1

SOLO 

|Lead
|-------------------------10/15\12~~~-12b13-12b13-12b13-12b13~~~-|
|----------------------------------------------------------------|
|----------------------------------------------------------------|
|----------------------------------------------------------------|
|----------------------------------------------------------------|
|-12\\\\\\\\\\\\\\\\\\\\\----------------------------------------|
|
|Rhythm
|-------------------------------------------------|
|-------------------------------------------------|
|-------------------------------------------------|
|-------------------------------------------------|
|-00-00-00-00-00-00-00-00-11-11-11-11-33-33-11-11-|
|-00-00-00-00-00-00-00-00-11-11-11-11-33-33-11-11-|
  ** ** ** ** ** ** ** ** ** ** ** ** ** ** ** **

|-10h12-10h15-10h13-10h12-10h12-10h15-10h13-10h12-|
|-------------------------------------------------|
|-------------------------------------------------|
|-------------------------------------------------|
|-------------------------------------------------|
|-------------------------------------------------|
|
|-------------------------------------------------|
|-------------------------------------------------|
|-------------------------------------------------|
|-------------------------------------------------|
|-0---0-------0---0-------0---0-------0---0-------|
|-0---0-------0---0-------0---0-------0---0-------|
  *   *       *   *       *   *       *   * 

|-10h12p10-10h12p10-10h12p10-10h13p10-10h13p10-10h13-|
|----------------------------------------------------|
|----------------------------------------------------|
|----------------------------------------------------|
|----------------------------------------------------|
|----------------------------------------------------|
|
|----------------------------------------------------|
|----------------------------------------------------|
|----------------------------------------------------|
|----------------------------------------------------|
|-0----0-------0----0-------0----0-------0----0------|
|-0----0-------0----0-------0----0-------0----0------|
  *    *       *    *       *    *       *    * 

|-/10-/12-/13-/15-/17-/19-19b21~~~~~-21b23~~~-10/12-|
|---------------------------------------------------|
|---------------------------------------------------|
|---------------------------------------------------|
|---------------------------------------------------|
|---------------------------------------------------|
|   .   .   .   .   .   .
|---------------------------------------------------|
|---------------------------------------------------|
|---------------------------------------------------|
|-5--x8--x3--x7--x----------------------------------|
|-5--x8--x3--x7--x--------00-00-00-00-00-00-00-00---|
|-5--x8--x3--x7--x5-0-1-3-00-00-00-00-00-00-00-00---|
  .   .   .   .           ** ** ** ** ** ** ** **

|-15p13p10-15p13p10-15p13p10-15p13p10-15p13p10-15p13p10-\8~~~---------|
|---------------------------------------------------------------------|
|---------------------------------------------------------------------|
|---------------------------------------------------------------------|
|---------------------------------------------------------------------|
|---------------------------------------------------------------------|
|
|---------------------------------------------------------------------|
|---------------------------------------------------------------------|
|---------------------------------------------------------------------|
|---------------------------------------------------------------------|
|-3--3-----3--3-----3--3-----3--3-----3--3-----1--1-----1--1-----1--1-|
|-3--3-----3--3-----3--3-----3--3-----3--3-----1--1-----1--1-----1--1-|
  *  *     *  *     *  *     *  *     *  *     *  *     *  *     *  *

|-12p10p8-10p8p6-12p10p8-15p13p10-12p10p8-10p8p6-12p10p8-6-5--|
|-------------------------------------------------------------|
|-------------------------------------------------------------|
|-------------------------------------------------------------|
|-------------------------------------------------------------|
|-------------------------------------------------------------|
|
|-------------------------------------------------------------|
|-------------------------------------------------------------|
|-------------------------------------------------------------|
|-------------------------------------------------------------|
|-0--0----0--0---0--0----0--0-----0--0----0--0---0--0----0--0-|
|-0--0----0--0---0--0----0--0-----0--0----0--0---0--0----0--0-|
  *  *    *  *   *  *    *  *     *  *    *  *   *  *    *  *

|-9-8-6-5------9-8-6-5---8-6-5-3---3/12-----------------------|
|-9-8-6-5------9-8-6-5---8-6-5-3---3/12-----------------------|
|-------------------------------------------------------------|
|-------------------------------------------------------------|
|-------------------------------------------------------------|
|-------------------------------------------------------------|
|       .            .         . 
|-------------------------------------------------------------|
|-------------------------------------------------------------|
|-------------------------------------------------------------|
|-------------------------------------------------------------|
|-------------------------------------------------------------|
|-8-7-5-3------8-7-5-3---7-5-3-1---1/8------------------------|
        .            .         .
CHORUS (version 2)

ENDING (Both guitars)

|-----------------------------|
|-----------------------------|
|-----------------------------|
|-----------------------------|
|-----------------------------|
|-0-0-12121212-0-0-12121212-0-|
  * * * * * *  * * * * * *  *  

That’s all! Thanks for checking it out!

TAB LEGEND

Inside tab:

/ - Slide up to 
\ - Slide down from 
\\\\\\ - Tremolo while sliding
~~~ - Let ring
* - Artificial harmonic
x - Full mute
h - Hammeron
p - Pulloff
b - Bend (previous note until it sounds like the next)

Below tab:

* - Palm mute
. - Staccato note (don’t let it ring)

Tab itself:

|-----| - Standard section of tab. Play it and keep going.

||--- - Beginning of section to be repeated.

---||x2 - End of section to be repeated. Go back to the beginning sign
and repeat until you’ve played as many times as indicated by the 
number after the x. 

|---
|---
|
|Rhythm   - Shows parts where two guitars play different things
|---        simultaneously. The top is always lead, and the bottom   
|---        is always rhythm; play whichever part you like more if 
            you’re playing by yourself.

comments
We did not receive enough feedback on this tab! Please rate:
print report bad tab
1 2 3 4 5
I want to post or [tab]
guest
You may want to rate the tab now too:
select rating
Please do not post tabs as comments. Select "correction" instead!