Oops, an error
Loading. Please wait.

Af - Slipstreams chords

22 views 1 this week
no commentswrite comment
1 2 3 4 5
3 more votes to show rating
add to favorites
×
Save as Personal and add changes to this tab that will be seen only by you. Learn more ›
×
You can save this tab as Personal to edit and correct it or add notes. All changes will be seen only by you. Learn more »
launch autoscroll
font size
0
reset
transpose
0
reset
simplify chords
display chords
guitar tuner
edit
Autoscroll
slow
fast
+/-
esc
set tempo
stop
Strumming
There is no strumming pattern for this song yet. and get +5 IQ
Composer - Aidan Fisher, A.F

Key: D# Major

Moderato - 120Bpm - 4/4 Time

Capo 4

Tuning: Drop D

Chords:

        Am7                    F7/Am7     D7/Am7
e|------0------------------|---0----------0----------|
B|----1-1------------------|---1----------1----------|
G|------0------------------|---0----------0----------|
D|-0/2--2------------------|---2----------2----------|
A|------0------------------|---3----------0----------|
D|-------------------------|-0/3----------0----------|


("/" means hammer on) 


[Verse 1]

Am7                              F7        D7
Can you see the blue light, just across the bay?

Am7                         F7      D7
Tryna Figure out, what went wrong today

Am7                             F7 D7
Can you see the sun, reach it's equinox?

Am7                                   F7     D7
As the time ticks through, right till twelve-o-clock


[Intermission]

F7 - (with D string Open)          D7
F7                                 D7

Harmonic Guitar - Octave notes with delay effect
e|-------------------------|-------------------------|-------------------------|-------------------------|
B|-------------------------|-------------------------|-------------------------|-------------------------|
G|-7--7--7--7---5-5-5------|-7--7--7--7---5-5-5------|-7--7--7--7---5-5-5------|-7--7--7--7---5-5-5------|
D|-------------------------|-------------------------|-------------------------|-------------------------|
A|-5--5--5--5---3-3-3------|-5--5--5--5---3-3-3------|-5--5--5--5---3-3-3------|-5--5--5--5---3-3-3------|
D|-------------------------|-------------------------|-------------------------|-------------------------|


[Verse 2] - Lead Guitar plays root notes with bends

Am7                                                F7               D7
you can see in my eyes that I’m the kinda guy, you don’t find lying down round the corner

Am7                                                   F7             D7
cause i live in the skies, and i guess that implies a feeling that i need, to sit there and warn her


[Intermission]

F7 - (with D string Open)          D7
F7                                 D7

Harmonic Guitar - Octave notes with delay effect
e|-------------------------|-------------------------|-------------------------|-------------------------|
B|-------------------------|-------------------------|-------------------------|-------------------------|
G|-7--7--7--7---5-5-5------|-7--7--7--7---9-7-5------|-7--7--7--7---5-5-5------|-7--7--7--7---9-7-5------|
D|-------------------------|-------------------------|-------------------------|-------------------------|
A|-5--5--5--5---3-3-3------|-5--5--5--5---7-5-3------|-5--5--5--5---3-3-3------|-5--5--5--5---7-5-3------|
D|-------------------------|-------------------------|-------------------------|-------------------------|



[Chorus]

F7   D7       Am7            Am7
     fighting on the days of slipstreams

F7   D7           Am7          Am7
     light up the sky like its gasoline

F7   D7                Am7             Am7
     glide through the nights down the sixteen 

F7   D7       Am7      Am7
                       slipstreams

F7   D7                Am7              Am7
     glide through the clouds like them fighter jets

F7   D7              Am7                Am7
     I’ve been there once but I’m still looking yet

F7   D7       Am7              Am7
     whatever takes us we will never get

F7   D7       Am7      Am7
                       slipstreams


[Bridge] - 

e|----------------------------------------------------------------|
B|----------------------------------------------------------------|
G|-5---5---5---5---5---5--5---5---5---5---5---5--5---5---5---5----|
D|-7---7---6---6---5---5--4---4---3---3---0---0--7---7---7---7----|
A|-0-0---0-0-0---0-0-0--0---0---0-0-0---0-0-0--0-0-0---0-0-0---0--|
D|------------------------0---------------------------------------|

slipstream into to my dreams find a way out and I’m free  - (Repeat until final two verses)

Harmonic Guitar joins in with chords with exact same notation but strummed rather than plucked - Legato

Guitar Solo - Key of Am (too many notes to annotate)

            
            
Suggest correction
Creating personal tab
Creating personal tab
You can edit any tab online and save it as your Personal.

You can edit, replace or remove any tab part or add personal notes – all changes will be seen only by you.

Personal tabs can be accessed anytime from any device, even offline.
Learn more »
Give kudos to tab author, rate the tab!
1 2 3 4 5
comments
print report bad tab
guest
Wanna post a correction for this tab? Suggest correction