Oops, an error
Loading. Please wait.

Aftermath - Soul Sucker Tab

37 views 1 this week
no commentswrite comment
1 2 3 4 5
please rate
add to favorites
launch autoscroll
font size
0
reset
how to read this tab
guitar tuner
Tab Pro tools
  • play this tab
  • loop segment
  • change instrument
  • show fretboard
  • metronome
×
Best way to learn
"Aftermath - Soul Sucker"
Autoscroll
slow
fast
+/-
esc
set tempo
stop
Contributor
Difficulty
Tuning
intermediate
D A D G B E
The tabs to this song have been re-worked because of a new improved release of the 
song, but if you would like to learn the retro version; ver. 1 is still available

============================================================================

INTRO

[GTR 2 Dist.]
E|-------------------------------------------------------------------|
B|-------------------------------------------------------------------|
G|-------------------------------------------------------------------|
d|---------------------------------------------------1-1-1-1-1-1-1-1-|
A|---------------------------------------------------1-1-1-1-1-1-1-1-|
D|---------------------------------------------------1-1-1-1-1-1-1-1-|
PM                                                   • • • • • • • •


[GTR 1 Clean]
E|-------------------------------------------------------------------|
B|-------------------------------------------------------------------|
G|-------------------------------------------------------------------|
d|-------------0-------------0-------------0-------------0-----0---0-|
A|-----------0-------------0-------------0-------------0-----0-------|
D|-0-------0-----1-------1-----3-------3-----1-------1-----3-----1---|


[GTR 3]
D|-0-------------1-------------3-------------1-----------------------|


============================================================================

VERSE

[GTR 1 Dist.]
E|-----------------------------------------------------------------------|
B|-----------------------------------------------------------------------|
G|-----------------------------------------------------------------------|
d|-0---0-------------------0-0-0-0-----------------0-0-------------------|
A|-0---0-------------------0-0-0-0-----------------0-0-------------------|
D|-0---0---3p2-0h5---0h2h3-0-0-0-0-3p2-0h6---0h2h3-0-0---3p2-0h5---0h2h3-|
PM •   •                   • • • •                 • •

E|---------------------------|
B|---------------------------|
G|---------------------------|
d|-7----6----5----7----6---5-|
A|-7----6----5----7----6---5-|
D|-7----6----5----7----6---5-|


============================================================================

PRECHORUS

[GTR 1 DIST.]
E|------------------------------------------------------------------|
B|------------------------------------------------------------------|
G|------------------------------------------------------------------|
d|-00-00-00-00-000000-00-00-00-000000-00-00-00-000000-00-00-00---0-0|
A|-00-00-00-00-000033-33-11-11-333300-00-00-00-000011-11-33-33---0-0|
D|-00-00-00-00-000000-00-00-00-000000-00-00-00-000000-00-00-00---0-0|
PM •• •• •• •• •••••• •• •• •• •••••• •• •• •• ••••              • •


============================================================================

CHORUS

[GTR 1 Dist.]
E|---------------------------------------------------|
B|---------------------------------------------------|
G|-------------9----8----7---4---5-------------------|
d|-0---x-x-x-x-7----6----5---3---3-------------------|
A|-0---x-x-x-x-7----6----5---3---3-------------------|
D|-0---x-x-x-x-7----6----5---3---3---3-0h3h5-0h4h6p4-|

E|------------------------------------|
B|------------------------------------|
G|----------9--8--7-4---5-------------|
d|-0---xxxx-7--6--5-3---3---5--5--5/6-|
A|-0---xxxx-7--6--5-3---3---5--5--5/6-|
D|-0---xxxx-7--6--5-3---3---5--5--5/6-|

============================================================================

INTERLUDE

 starts half way through the clean part

[GTR 2]
E|--------------------|
B|--------------------|
G|--------------------|
d|---5*-----5*--------|
A|-----5*-----5*---5*-|
D|-------5*-----5*----| X8


[GTR 1 Clean]
E|-------------------------------------------------------------------|
B|-------------------------------------------------------------------|
G|-------------------------------------------------------------------|
d|-----0---3-0-------------0-3-0-----------0-3-0-----------0-3-0---1-|
A|---0---0-----3-4-------4-------3-1-----0-------3-0-----0-------3---|
D|-0------------------0----------------0---------------0-------------| X4


[GTR 1 Dist.]
E|-------------------------------------------------|
B|-------------------------------------------------|
G|-------------------------------------------------|
d|-2-------3---------------------------------------|
A|-0-------1---------------------------------------|
D|-----------------3-3-3-3-3-3-3-3-5-5-5-5-5-5-5-5-|

E|-------------------------------------------------------------------------|
B|-------------------------------------------------------------------------|
G|-------------------------------------------------------------------------|
d|-0-0-0-0-0-0-0-0-3-3-3-3-3-3-3-3-5-5-5-5-5-5-5-5/12-12-12-12-12-12-12-12-|
A|-0-0-0-0-0-0-0-0-3-3-3-3-3-3-3-3-5-5-5-5-5-5-5-5/12-12-12-12-12-12-12-12-|
D|-0-0-0-0-0-0-0-0-3-3-3-3-3-3-3-3-5-5-5-5-5-5-5-5/12-12-12-12-12-12-12-12-|
PM • • • • • • • • • • • • • • • • • • • • • • • •

============================================================================

CHORUS X2

============================================================================
comments
We did not receive enough feedback on this tab! Please rate:
print report bad tab
1 2 3 4 5
I want to post or [tab]
guest
You may want to rate the tab now too:
select rating
Please do not post tabs as comments. Select "correction" instead!