Oops, an error
Loading. Please wait.

Aftertears - Anything Goes Tab

353 views 1 this week
no commentswrite comment
1 2 3 4 5
please rate
add to favorites
launch autoscroll
font size
0
reset
how to read this tab
guitar tuner
Autoscroll
slow
fast
+/-
esc
set tempo
stop
Help us to improve Ultimate-Guitar.com Take our survey!
×
ok, this is a better song than i have already posted on here by my band, and i know that.


----------------------------------------------------------------------------
                             SONG NAME - Band Name
----------------------------------------------------------------------------
Tabbed by:Caitlin
Email:angelsk8er2008@aol.com

Tuning:Standard

Intro
e|--------------------------------------------------------------------------|
B|--------------------------------------------------------------------------|
G|--------------------------------------------------------------------------|
D|------------------------3-3-3-2-------------------------------------------|
A|-3-3-2----3-2-0--3-2-------------3-333-3-2--------3-2-0-000--3-2----------|
E|-------3-------------1---------------------3-333-----------------1--------|

e|--------------------------------------------------------------------------|
B|--------------------------------------------------------------------------|
G|--------------------------------------------------------------------------|
D|-333-2--------------------------------------------------------------------|
A|--------3-333-3-2--------3-2-0-000--3-2-----------------------------------|
E|------------------3-333-----------------1---------------------------------|

Verse
e|--------------------------------------------------------------------------|
B|--------------------------------------------------------------------------|
G|--------------------------------------------------------------------------|
D|-2-2-22-22-2-22--5-5-55-55-5-55--7-7-77-77-7-77--2-2-22-------------------|
A|-2-2-22-22-2-22--5-5-55-55-5-55--7-7-77-77-7-77--2-2-22-------------------|
E|-0-0-00-00-0-00--3-3-33-33-3-33--5-5-55-55-5-55--0-0-00-------------------|

e|--------------------------------------------------------------------------|
B|--------------------------------------------------------------------------|
G|--------------------------------------------------------------------------|
D|-3-3-33-33-3-33--6-6-66-66-6-66--4-4-44-44-4-44--2-2-22-------------------|
A|-3-3-33-33-3-33--6-6-66-66-6-66--4-4-44-44-4-44--2-2-22-------------------|
E|-1-1-11-11-1-11--4-4-44-44-4-44--2-2-22-22-2-22--0-0-00-------------------|

Chorus
e|-3--3-3-3-3--3--3-333--0--0-0-0-0--0--0-000------------------------|
B|-3--3-3-3-3--3--3-333--3--3-3-3-3--3--3-333------------------------|
G|-0--0-0-0-0--0--0-000--2--2-2-2-2--2--2-222------------------------|
D|-0--0-0-0-0--0--0-000------------------------2--2-2-2-2--2--2-222--|
A|-2--2-2-2-2--2--2-222------------------------2--2-2-2-2--2--2-222--|   x2
E|-3--3-3-3-3--3--3-333------------------------0--0-0-0-0--0--0-000--|

Outro
e|--------------------------------------------------------------------------|
B|---0----------------------------------------------------------------------|
G|-----0--------------------------------------------------------------------|
D|-------------12--------5--------------------------------------------------|
A|-7-----7-------12-12---5--------------------------------------------------|
E|----------10-----------3--------------------------------------------------|

| /  slide up
| \  slide down
| h  hammer-on
| p  pull-off
| ~  vibrato
| +  harmonic
| x  Mute note
============================================================================
Suggest correction
Give kudos to tab author, rate the tab!
1 2 3 4 5
comments
print report bad tab
guest
You may want to rate the tab now too:
select rating
Please do not post tabs as comments. Select "correction" instead!