Oops, an error
Loading. Please wait.

Age Pryor - Funny Shadow Tab

429 views 1 this week
no commentswrite comment
1 2 3 4 5
please rate
add to favorites
launch autoscroll
font size
0
reset
how to read this tab
guitar tuner
Autoscroll
slow
fast
+/-
esc
set tempo
stop
Help us to improve Ultimate-Guitar.com Take our survey!
×
Author
Difficulty
intermediate
Funny Shadow
By Age Pryor and Tessa Rain
Tabbed by Dan Cobb

Repeat this pattern for the entire song. All chords are picked the
 same throughout the song. Note this does NOT include the solo.

| h  hammer-on

    C                         F                       C
e|------------------------------------------------------------------|
B|-------------------------------1-----1-----1-----1----------------|
G|-----0------0-----0------0--------2h----------2h-------0------0---|
D|--------2h-----------2h-----3-----------3-----------------2h------|
A|--3------------3------------------------------------3-------------|
E|------------------------------------------------------------------|
          Wha a  funny     sha-       -dow   you      have

    C                                     Am
e|------------------------------------------------------------------|
B|------------------------------------------------------------------|
G|-----0------0-----0------0-----0-----0-----2-----2-----2------2---|
D|--------2h-----------2h-----------------------2h----------2h------|
A|--3------------3------------3-----2-----0-----------0-------------|
E|------------------------------------------------------------------|
                                                Wh yo lo be-    -hind

    F                         C
e|---------------------------------------------------------------------|
B|-----1------1-----1------1-------------------------------------------|
G|--------2h-----------2h--------0-----0-----0-----0-----0------0------|
D|--3------------3------------------2h----------2h----------2h---------|
A|----------------------------3-----------3-----------3----------------|
E|---------------------------------------------------------------------|
       you    now   it's   gone.

    C            F                        Am
e|------------------------------------------------------------------|
B|------------------1-----1------1-----1----------------------------|
G|-----0------0--------2h-----------2h-------2-----2-----2------2---|
D|--------2h-----3------------3-----------------2h----------2h------|
A|--3-------------------------------------0-----------0-------------|
E|------------------------------------------------------------------|
              an it just  you    and   her

    F                       G                        C
e|----------------------------------------------------------------|
B|-----1-----1-----1-----1-----------------0-----0----------------|
G|--------2h----------2h-------0-----0--------0---------0------0--|
D|--3-----------3-----------------------0------------------2h-----|
A|--------------------------------2------------------3------------|
E|--------------------------3-------------------------------------|
    ea ting  fi sh and      drin-             -king  sea

Suggest correction
Give kudos to tab author, rate the tab!
1 2 3 4 5
comments
print report bad tab
guest
You may want to rate the tab now too:
select rating
Wanna post a correction for this tab? Suggest correction