Oops, an error
Loading. Please wait.

Aggressive Audio - Liar Evil Tab

version 1
version 1

Whole song

1,810 views 1 this week
6 commentsread comments
1 2 3 4 5
x 3
add to favorites
launch autoscroll
font size
0
reset
how to read this tab
guitar tuner
Autoscroll
slow
fast
+/-
esc
set tempo
stop
Help us to improve Ultimate-Guitar.com Take our survey!
×
Author
this Song is Didicated to my Friends in USC-North Campus (III-White)
Especially Tristan,Meo,Nikko,Keith jon,Shaun,Rabbi and Sicadsicad Jeric
And to My Fwends In Villa Del Rio Rate Ni NInyo BAi....

Song: Liar Evil
Artist: Aggressive Audio
Tabbed: Janjan "Chitox" Reserva

Add me janniel_reserva@yahoo.com       My No.09155552233

              " Try ni ninyo This is fun Sepra lang ko ni
                Pero Kuha Kaau hehehehe........."


Intro:

Gigutom si dodong JANJAN....Do this
 |-----------------------------------------------------------------|
 |-----------------------------------------------------------------|
 |--9--9--------------------------9--9-----------------------------|
 |--9--9--9--9---11--11---9---9---9--9-----------------------------|
 |--7--7--9--9---11--11---9---9---7--7-----------------------------|   Do this
 |--------7--7---9---9----7---7------------------------------------|  4x


pagkahuman og kaon......do this
|------------------------------------------|
 |-----------------------------------------|
 |---------------9--9----11-11-------------|
 |-7--7---9---9--9--9---11--11-------------|
 |-7--7---9---9--7--7---9---9--------------|
 |-5--5---7---7----------------------------|

Pagpaningil sa tindira....Do this

|------------------------------------------------------------------|
 |-----------------------------------------------------------------|
 |--9--9--------------------------9--9-----------------------------|
 |--9--9--9--9---11--11---9---9---9--9-----------------------------|
 |--7--7--9--9---11--11---9---9---7--7-----------------------------|   Do this
 |--------7--7---9---9----7---7------------------------------------|  2x


Chorus:

Backakon Ka Liar Evil KA...do this
|------------------------------------------|
 |-----------------------------------------|
 |-9--9------------------------------------|   Do this until
 |-9--9--9---9---7--7---9---9--------------|   the Chorus will End.
 |-7--7--9---9---7--7---9---9--------------|
 |-------7---7---5--5---7---7--------------|

(Same Tab In Verse 1 & Same Tab In Chorus)


hope you will like this and dont forget
to Rate This Song....don't forget to add
me in Friendster....
Suggest correction
Give kudos to tab author, rate the tab!
1 2 3 4 5
comments
print report bad tab
6 comments total. Showing first comments.
0 reply
l_ampao_l 101 Sep 22, 2006 02:40 AM

uy bati-a, wala ma'y lead...sunod apila nya ha? asta ang solo

0 reply
BASKOG!! 15 Sep 28, 2006 07:07 AM

kinsa kahibalo lead ani? poide tab ninyo?

0 reply
TNR_Raki_Gitarz 10 Nov 07, 2006 08:33 AM

hmuon n lng n2 ni ug 4star kay wlay leads

guest
You may want to rate the tab now too:
select rating
Wanna post a correction for this tab? Suggest correction