Oops, an error
Loading. Please wait.

Aggressive Audio - Lingin Tab

version 1
version 1

Whole song

2,105 views 1 this week
8 commentsread comments
1 2 3 4 5
accurate
x 3
add to favorites
launch autoscroll
font size
0
reset
how to read this tab
guitar tuner
Autoscroll
slow
fast
+/-
esc
set tempo
stop
Help us to improve Ultimate-Guitar.com Take our survey!
×
Author
-----------------------------------------------------------------------------
     LINGIN - Aggressive Audio
-----------------------------------------------------------------------------


Tabbed by: ampao

Most of the song, acoustic guitar was used.

Intro:
e|----------7-5-------|---------------7----|---------5-2----|----------------|
B|-----5---------5----|-----9------10---10-|-----2-------3--|----7---8-7-----|
G|---6---6---------6--|---9---9------------|---2---2-------2|------------7---|
D|--------------------|--------------------|----------------|--7---7-------7-|
A|--------------------|-7------------------|----------------|5---------------|
E|-5------------------|--------------------|-2--------------|----------------|

repeat this 2x

Verse 1:
e|----------7-5-------|---------------7----|---------5-2----|----------------|
B|-----5---------5----|-----9------10---10-|-----2-------3--|----7---8-7-----|
G|---6---6---------6--|---9---9------------|---2---2-------2|------------7---|
D|--------------------|--------------------|----------------|--7---7-------7-|
A|--------------------|-7------------------|----------------|5---------------|
E|-5------------------|--------------------|-2--------------|----------------|

repeat 2x

Refrain:
e|----------7-5-------|---------------7----|---------5-2----|----------------|
B|-----5---------5----|-----9------10---10-|-----2-------3--|----7---8-7-----|
G|---6---6---------6--|---9---9------------|---2---2-------2|------------7---|
D|--------------------|--------------------|----------------|--7---7-------7-|
A|--------------------|-7------------------|----------------|5---------------|
E|-5------------------|--------------------|-2--------------|----------------|

repeat once

Verse 2:
e|----------7-5-------|---------------7----|---------5-2----|----------------|
B|-----5---------5----|-----9------10---10-|-----2-------3--|----7---8-7-----|
G|---6---6---------6--|---9---9------------|---2---2-------2|------------7---|
D|--------------------|--------------------|----------------|--7---7-------7-|
A|--------------------|-7------------------|----------------|5---------------|
E|-5------------------|--------------------|-2--------------|----------------|

repeat 2x

Refrain:
(strum this part)
          A                    E                  F#m              D
e|--------5-----------|--------7-----------|------2--------|-------5--------|
B|--------5-----------|--------9-----------|------2--------|-------7--------|
G|--------6-----------|--------9-----------|------2--------|-------7--------|
D|--------7-----------|--------9-----------|------4--------|-------7--------|
A|--------7-----------|--------7-----------|------4--------|-------5--------|
E|--------5-----------|--------------------|------2--------|----------------|

Chorus:
(Strum gihapon and some picking which I haven't figured out yet)
          A                    E                  F#m              D
e|--------5-----------|--------7-----------|------2--------|-------5--------|
B|--------5-----------|--------9-----------|------2--------|-------7--------|
G|--------6-----------|--------9-----------|------2--------|-------7--------|
D|--------7-----------|--------9-----------|------4--------|-------7--------|
A|--------7-----------|--------7-----------|------4--------|-------5--------|
E|--------5-----------|--------------------|------2--------|----------------|

Instrumental:
A-E-F#m-D picking

Chorus:
(This is where the drums and electric guitar come in)
          A                    E                  F#m              D
e|--------5-----------|--------7-----------|------2--------|-------5--------|
B|--------5-----------|--------9-----------|------2--------|-------7--------|
G|--------6-----------|--------9-----------|------2--------|-------7--------|
D|--------7-----------|--------9-----------|------4--------|-------7--------|
A|--------7-----------|--------7-----------|------4--------|-------5--------|
E|--------5-----------|--------------------|------2--------|----------------|

Outro:
(picking)

D           E         A
kay akong kinabuhi lingin
D                  E         A-E-F#m-D
kitang tanan sa kalibutan lignin


------------------------------

am, wa pa ni natiwas...... basta...support local music...



Aggressive Audio MySpace: http://www.myspace.com/aggressiveaudio/
Suggest correction
Give kudos to tab author, rate the tab!
1 2 3 4 5
comments
print report bad tab
8 comments total. Showing first comments.
0 reply
jezrelmarvin 130 wrote on June 7 2006, 09:45 am

ur chords are lacking... you must do the "E" chord before doin' the refrain as well as the chorus... ;p

0 reply
l_ampao_l 101 wrote on June 9 2006, 06:40 am

mao ba...i'll update it nlng when i have the time...thanks.

0 reply
bakaknasad 10 wrote on September 12 2006, 09:35 am

atay aning oi..taka mn lng ka bai...ayaw tuga2x submit tab oi kng di ka kybaw..haha saunzz

guest
You may want to rate the tab now too:
select rating
Please do not post tabs as comments. Select "correction" instead!