Oops, an error
Loading. Please wait.

Aghast - Unlocking The Anceint Secrets Of Freyr Tab

64 views 1 this week
no commentswrite comment
1 2 3 4 5
3 more votes to show rating
add to favorites
launch autoscroll
font size
0
reset
how to read this tab
guitar tuner
Autoscroll
slow
fast
+/-
esc
set tempo
stop
Help us to improve Ultimate-Guitar.com Take our survey!
×
Author
                                 Aghast

                " Unlocking The Ancient Secrets Of Freyr "



x - palm mute    / - slide

p - pull off     T - finger tap

2(14) - hold second fret and tap metal bar on fourteenth fret 
  T     on the same string to make this note. 
        ( I'm not sure what that is called ) 
  


||------------------------------------------------------------------------||
||------------------------------------------------------------------------||
||------------------------------------------------------------------------||
||------------------------------------------------------------------------||
||------------------------------------------------------------------------||
||-0000-0000-0000-0-0000-0000-0000-00-0000-0000-0000-0-0000-0000-0000-000-||
   xxxx xxxx xxxx x xxxx xxxx xxxx xx xxxx xxxx xxxx x xxxx xxxx xxxx xxx



||-----------------------------------------------------------------------||
||-----------------------------------------------------------------------||
||-----------------------------------------------------------------------||
||-----------------------------------------------------------------------||
||-----------------------------------------------------------------------||
||-5p2-5p2-5p2-5p2--3p2-3p2-3p2-3p2--0-2-3-5--0-2-3-5--0-2-3-5--5-3-2-0--||
                                     x x x x  x x x x  x x x x  x x x x


||------------------------------------------------------------||
||------------------------------------------------------------||
||------------------------------------------------------------||
||-2-1-0--111111--2-1-0--111111--2-1-0--3-2-1--2-1-0--111111--||
||-2-1-0--333333--2-1-0--333333--2-1-0--3-2-1--2-1-0--333333--||
||-2-1-0----------2-1-0----------2-1-0--3-2-1--2-1-0----------||
   x x x          x x x          x x x  x x x  x x x       


||-----------------------------------------------------------------||
||-----------------------------------------------------------------||
||-----------------------------------------------------------------||
||-2-1-0--3-2-1--3-2-1--1-2-3--1-2-3--2-1-0--111111--2-1-0--111111-||
||-2-1-0--3-2-1--3-2-1--1-2-3--1-2-3--2-1-0--333333--2-1-0--333333-||
||-2-1-0--3-2-1--3-2-1--1-2-3--1-2-3--2-1-0----------2-1-0---------||
   x x x  x x x  x x x  x x x  x x x  x x x          x x x 


||---------------------------------------------------------------------------||
||---------------------------------------------------------------------------||
||---------------------------------------------------------------------------||
||-2-1-0--111111--2-1-0--3-2-1--2-1-0--111111--2-1-0--3-2-1--3-2-1--1-2-3--1-||
||-2-1-0--333333--2-1-0--3-2-1--2-1-0--333333--2-1-0--3-2-1--3-2-1--1-2-3--1-||
||-2-1-0----------2-1-0--3-2-1--2-1-0----------2-1-0--3-2-1--3-2-1--1-2-3--1-||
   x x x          x x x  x x x  x x x          x x x  x x x  x x x  x x x  x


||--------------------------------------------------------------------------||
||--------------------------------------------------------------------------||
||--------------------------------------------------------------------------||
||-2-1-0--333333--2-1-0--333333--2-1-0--3-2-1--2-1-0--333333--2-1-0--333333-||
||-2-1-0--111111--2-1-0--111111--2-1-0--3-2-1--2-1-0--111111--2-1-0--111111-||
||-2-1-0----------2-1-0----------2-1-0--3-2-1--2-1-0----------2-1-0---------||
   x x x          x x x          x x x  x x x  x x x          x x x 


||---------------------------------------------------||
||---------------------------------------------------||
||---------------------------------------------------||
||------1\4-------1\4---4\7-------1\4-----1\4---4\7--||
||------3\6-------3\6---6\9-------3\6-----3\6---6\9--||
||-000-------000-------------000------5/-------------||
   xxx       xxx             xxx


||------------------------------------||
||------------------------------------||
||------------------------------------||
||-4-3-4-3--4-3-4-3--4-3-4-3--4-3-4\8-||
||-3-2-3-2--3-2-3-2--3-2-3-2--3-2-3\7-||
||-2-1-2-1--2-1-2-1--2-1-2-1--2-1-2\6-||
   x x x x  x x x x  x x x x  x x x


||------------------------------------||
||------------------------------------||
||------------------------------------||
||-4-3-4-3--4-3-4\8--4-3-4-3--4-3-4\8-||
||-3-2-3-2--3-2-3\7--3-2-3-2--3-2-3\7-||
||-2-1-2-1--2-1-2\6--2-1-2-1--2-1-2\6-||
   x x x x  x x x    x x x x  x x x


||---------------------------------------------------------------------||
||---------------------------------------------------------------------||
||---------------------------------------------------------------------||
||-------------------2-2--------------------2-2--------------------2-2-||
||-------------------2-2--------------------2-2--------------------2-2-||
||-0-2-3-5--0-2-3-5--0-0--0-3-5-6--0-3-5-6--0-0--0-0-1-2--0-0-1-2--0-0-||
   x x x    x x x    x x  x x x    x x x    x x  x x x    x x x    x x


||---------------------------||--------------------------------------------||
||---------------------------||--------------------------------------------||
||---------------------------||--------------------------------------------||
||-8-7-5---------------------||--------------------------------------------||
||-------8-7-5--7-5-4--------||--------------------------------------------||
||---------------------6-5-3-||-2(14)-0-2-3-5--2(14)-0-2-3-5--2(14)--2(14)-||
                                  T   x x x      T   x x x      T      T


||---------------------------------||-----------------------------------------||
||---------------------------------||-----------------------------------------||
||---------------------------------||-----------------------------------------||
||---------------------------------||-------------------2-2-------------------||
||-----------------------4p3-------||-------------------2-2-------------------||
||-0-2-3-5--2(14)--2-3-5-----5-2p0-||-0-2-3-5--0-2-3-5--0-0--0-3-5-6--0-3-5-6-||
   x x x      T    x x x              x x x    x x x    x x  x x x    x x x


||-----||
||-----||
||-----||
||-2-2-||
||-2-2-||
||-0-0-||
   x x



||--------------------------------------------||
||--------------------------------------------||
||--------------------------------------------||
||--------------------------------------------||
||--------------------------------------------||
||-2(14)-0-2-3-5--2(14)-0-2-3-5--2(14)--2(14)-||
     T   x x x      T   x x x      T      T

||---------------------------------||
||---------------------------------||
||---------------------------------||
||---------------------------------||
||-----------------------4p3-------||
||-0-2-3-5--2(14)--2-3-5-----5-2p0-||
   x x x      T    x x x

||---------20-----------------------20-----------------------20----------20-||
||------19-----------------------19-----------------------19----------19----||
||---18-----------------------18-----------------------18----------18-------||
||-8----------8-7-8--11-8-7-8----------8-7-8--11-8-7-8-----------8----------||
||-7----------7-6-7--10-7-6-7----------7-6-7--10-7-6-7-----------7----------||
||-6----------6-5-6--9--6-5-6----------6-5-6--9--6-5-6-----------6----------||
   x          x x x  x  x x x          x x x  x  x x x           x


||------------------------20-----------------------20------------------||
||---------------------19-----------------------19---------------------||
||------------------18-----------------------18------------------------||
||-8-7-8-11-8-7-8-8-----------8-7-8-11-8-7-8------------8-7-8-11-8-7-8-||
||-7-6-7-10-7-6-7-7-----------7-6-7-10-7-6-7------------7-6-7-10-7-6-7-||
||-6-5-6-9--6-5-6-6-----------6-5-6-9--6-5-6------------6-5-6-9--6-5-6-||
   x x x x  x x x x           x x x x  x x x            x x x x  x x x


||------------------------------------------------------------------------||
||------------------------------------------------------------------------||
||------------------------------------------------------------------------||
||-2222-2222-2222-2-2222-2222-2222-22-2222-2222-2222-2-2222-2222-2222-222-||
||-2222-2222-2222-2-2222-2222-2222-22-2222-2222-2222-2-2222-2222-2222-222-||
||-0000-0000-0000-0-0000-0000-0000-00-0000-0000-0000-0-0000-0000-0000-000-||
   xxxx xxxx xxxx x xxxx xxxx xxxx xx xxxx xxxx xxxx x xxxx xxxx xxxx xxx

END.



Tabbed by Adam Aghast
Suggest correction
Give kudos to tab author, rate the tab!
1 2 3 4 5
comments
print report bad tab
guest
You may want to rate the tab now too:
select rating
Wanna post a correction for this tab? Suggest correction