Oops, an error
Loading. Please wait.

Aghast - Wrath Of The Infernal Necromancer Tab

105 views 1 this week
no commentswrite comment
1 2 3 4 5
please rate
add to favorites
launch autoscroll
font size
0
reset
how to read this tab
guitar tuner
Tab Pro tools
  • play this tab
  • loop segment
  • change instrument
  • show fretboard
  • metronome
×
Best way to learn
"Aghast - Wrath Of The Infernal Necromancer"
Autoscroll
slow
fast
+/-
esc
set tempo
stop
Contributor
Tuning
D G C F A D
                                        Aghast
                                    (northeast TN)                        
                           "Wrath Of The Infernal Necromancer"
                                Chaotic Underworld Records

D Standard (D A F C G D) High to Low

^ - False Harmonic
/ or \ - slide
x - Palm Mute
U - Up Stroke

||-----------------------------------------------------------------------|
||----------------^-------------------------------------^----------------|
||----------------2-------------------------------------2----------------|
||-0-3-2-0-1-0-0-----0-3-2-0-1-0-0-------0-3-2-0-1-0-0-----0-3-2-0-1-0-0-|
||-0-3-2-0-1-0-0-----0-3-2-0-1-0-0--5\4--0-3-2-0-1-0-0-----0-3-2-0-1-0-0-|
||-0-3-2-0-1-0-0-----0-3-2-0-1-0-0--3\2--0-3-2-0-1-0-0-----0-3-2-0-1-0-0-|
  x x x x x x x     x x x x x x x       x x x x x x x     x x x x x x x
  
|-------||---------------------------------------------------------------|
|-------||---------------------------------------------------------------|
|-------||---------------------------------------------------------------|
|-------||-2-------2--2-----------------------------------2--------------|
|-2222--||-2-5-3-5-2--2-5-3-5-----------------------------2-5-3-5--------|
|-------||-0-3-1-3-0--0-3-1-3-00000000000000000000000000000-3-1-30000000-|  
           x x x x x  x x x x (0pen) (sample)             x x x x

|------------------------------------------------------------------------|
|------------------------------------------------------------------------|
|------------------------------------------------------------------------|
|-2--------2---------------------------------2---------------------------|
|-2-5-3-5--2-5-3-5-11111111-3-5-111111111111-2-5-3-5-3-5-1111-3-222222222|
|-0-3-1-3--0-3-1-3----------1-3--------------0-3-1-3-1-3------1----------|
  x x x x  x x x x          x x              x x x x x x      x

|------------------------------------------------------|
|------------------------------------------------------|
|------------------------------------------------------|
|----2-------------------------------------------------|
|222-2-5-3-5-11111111-3-5-111111111111-3-222222222222--|
|----0-3-1-3----------1-3--------------1---------------|
     x x x x          x x              x

|------------------------------------------------------------------------|
|------------------------------------------------------------------------|
|------------------------------------------------------------------------|
|-2---------------------------------2------------------------------------|
|-2-5-3-5-11111111-3-5-111111111111-2-5-3-5-11111111-3-5-111111111111-3-2|
|-0-3-1-3----------1-3--------------0-3-1-3----------1-3--------------1--|
  x x x x          x x              x x x x          x x              x

|------------------------------------------------------------------------|
|------------------------------------------------------------------------|
|------------------------------------------------------------------------|
|------------2---------------------------------2-------------------------|
|22222222222-2-5-3-5-11111111-3-5-111111111111-2-5-3-5-3-5-1111-3-2222222|
|------------0-3-1-3----------1-3--------------0-3-1-3-1-3------1--------|
             x x x x          x x              x x x x x x      x

|------||-----------||---------------------------------------------------|
|------||-----------||---------------------------------------------------|
|------||-----------||----------------5------------------------5---------|
|------||-2-------2-||-2------------4---4-------------2------4---4-------|
|22222-||-2-5-3-5-2-||-2-5-3-5----3-------3--4-3--4-3-2----3-------3--4-3|
|------||-0-3-1-3-0-||-0-3-1-3--2------------2-1--2-1-0--2------------2-1|
          x x x x x    x x x x               x x  x x                 x x
                      ( slow down tempo )

|-------||------------------||-------------------------------------------|
|-------||------------------||-------------------------------------------|
|-------||-5555555566666666-||-------------------------------------------|
|-----2-||-4444444455555555-||-2-------2--2-------2----------------------|
|-4-3-2-||-3333333344444444-||-2-5-3-5-2--2-5-3-5-2-5-3-5-11111111-3-5-11|
|-2-1-0-||-2222222233333333-||-0-3-1-3-0--0-3-1-1-0-3-1-3----------1-3---|
  x x      UxUxUxUxUxUxUxUx    x x x x x  x x x x x x x x          x x
                                         ( speed up tempo )


|------------------------------------------------------------------------|
|------------------------------------------------------------------------|
|------------------------------------------------------------------------|
|-----------2-------------------------------2----------------------------|
|1111111111-2-5-3-5-3-5-1111-3-222222222222-2-5-3-5-11111111-3-5-11111111|
|-----------0-3-1-3-1-3------1--------------0-3-1-3----------1-3---------|
            x x x x x x      x              x x x x          x x         


|--------------------||--------------------------------------------------|
|--------------------||--------------------------------------------------|
|--------------------||--------------------------------------------------|
|--------------------||-2-------2--2-------------------------------------|
|1111-3-222222222222-||-2-5-3-5-2--2-5-3-5-------------------------------|
|-----1--------------||-0-3-1-3-0--0-3-1-3-000000000000000000000000000000|
      x                                               ( slow down tempo ) 


|-------------------------------------------------||
|-------------------------------------------------||
|-------------------------------------------------||
|-------------------------------------------------||
|-3-3-2--3-2--3-3-2--3/6--3-3-2--3-2--------------||
|-1-1-0--1-0--1-1-0--1/4--1-1-0--1-0-000000000000-|| 
  x x    x    x x    x    x x    x   xxxxxxxxxxxx    
                                                    


||------------------------||
||------------------------||
||------------------------||
||------------------------||
||------------------------||
||-00000000-12-000-12-000-|| 
   xxxxxxxxxxxxxxxxxxxxxx
 ( play every 4th time )

                                      THE END. 
comments
We did not receive enough feedback on this tab! Please rate:
print report bad tab
1 2 3 4 5
I want to post or [tab]
guest
You may want to rate the tab now too:
select rating
Please do not post tabs as comments. Select "correction" instead!