Oops, an error
Loading. Please wait.

Air - Ephemera Tab

1,460 views 3 this week
no commentswrite comment
1 2 3 4 5
please rate
add to favorites
launch autoscroll
font size
0
reset
how to read this tab
guitar tuner
Tab Pro tools
  • play this tab
  • loop segment
  • change instrument
  • show fretboard
  • metronome
×
Best way to learn
"Air - Ephemera"
Autoscroll
slow
fast
+/-
esc
set tempo
stop
Contributor
I heard this song off a Mary Kate & Ashley movie 5 years ago - The Challenge, and a
years later I wanted to learn how to play it and i couldn't find it anywhere!! So then I
got to the point where I just have to figure it out myself, and i did :) I'm sure 
another guitar in this, and piano, but I only figured out one of the guitar's part.
I'm 100% sure on the verses, not so much on the chorus, but it sounds pretty good. If
know how the chorus goes please email me -
sonia_singh_93@hotmail.com
This is my first tab ever, so be nice! Please ratee :)
Enjoy!


______________________
AIR – EPHEMERA

Tuning:Standard
CAPO 4

 Intro/Verse:
E-------------------------------1----------1---------1-----|
B-1---------1----------1-----------1----------1--------1---|
G----0---------0----------0-----------2---------2----------|
D------2---------2--------------0----------0---------0-----|
A-3---------3----------3-----------------------------------|
E----------------------------------------------------------|


E-3---------3----------3----------3---------3----------3---------------|
B----1----------1----------1----------1----------1----------1----1-----|
G------0----------0---------------------0----------0---------------0---|
D-2---------2----------2------------2---------2----------2-----------2-|
A----------------------------------------------------------------3-----|
E----------------------------------------------------------------------|

Then repeat!

For the chorus, I just finger pick these chords:

         F            Am
like a secret kept forever
           F           Am
you are dying for some air
       F
take a deep breath
       Am                        F
cause you'll never think of him
G
when i'm near

Then go back to the finger picking from the verses!
:]
comments
We did not receive enough feedback on this tab! Please rate:
print report bad tab
1 2 3 4 5
I want to post or [tab]
guest
You may want to rate the tab now too:
select rating
Please do not post tabs as comments. Select "correction" instead!