Oops, an error
Loading. Please wait.

Airdate - For You Tab

831 views 1 this week
3 commentsread comments
1 2 3 4 5
please rate
add to favorites
launch autoscroll
font size
0
reset
how to read this tab
guitar tuner
Tab Pro tools
  • play this tab
  • loop segment
  • change instrument
  • show fretboard
  • metronome
×
Best way to learn
"Airdate - For You"
Autoscroll
slow
fast
+/-
esc
set tempo
stop
Contributor
VERSE ONE

e|----xxxxx-------------33333-------------00000--------------xxxxx-----------|
B|----33333-------------00000-------------33333--------------33333-----------|
G|----00000-------------00000-------------00000--------------00000-----------|
  x12               x4                  x4               x8
D|----00000-------------00000-------------22222--------------00000-----------|
A|----22222-------------22222-------------33333--------------22222-----------|
E|----33333-------------33333-------------xxxxx--------------33333-----------|

e|----33333-------------00000-------------xxxxx------------------------------|
B|----00000-------------33333-------------33333------------------------------|
G|----00000-------------00000-------------00000------------------------------|
  x4                 x4                 x4
D|----00000-------------22222-------------00000------------------------------|
A|----22222-------------33333-------------22222------------------------------|
E|----33333-------------xxxxx-------------33333------------------------------|

PRE-CHORUS

e|----xxxxx-------------xxxxx-------------33333--------------33333-----------|
B|----33333-------------33333-------------00000--------------00000-----------|
G|----00000-------------00000-------------00000--------------00000-----------|
   x2                x2                 x2               x2
D|----00000-------------22222-------------00000--------------00000-----------|
A|----22222-------------33333-------------22222--------------00000-----------|
E|----33333-------------xxxxx-------------33333--------------22222-----------|

e|----xxxxx-------------x----------------------------------------------------|
B|----33333-------------3----------------------------------------------------|
G|----00000-------------0----------------------------------------------------|
   x3
D|----22222-------------2----------------------------------------------------|
A|----33333-------------3----------------------------------------------------|
E|----xxxxx-------------x----------------------------------------------------|

CHORUS


e|----xxxxx-------------xxxxx-------------33333--------------33333-----------|
B|----33333-------------33333-------------00000--------------00000-----------|
G|----00000-------------00000-------------00000--------------00000-----------|
   x2                x2                 x2               x2
D|----00000-------------22222-------------00000--------------00000-----------|
A|----22222-------------33333-------------22222--------------00000-----------|
E|----33333-------------xxxxx-------------33333--------------22222-----------|


e|----xxxxx-------------xxxxx-------------33333--------------33333-----------|
B|----33333-------------33333-------------00000--------------00000-----------|
G|----00000-------------00000-------------00000--------------00000-----------|
   x2                x2                 x2               x2
D|----00000-------------22222-------------00000--------------00000-----------|
A|----22222-------------33333-------------22222--------------00000-----------|
E|----33333-------------xxxxx-------------33333--------------22222-----------|

VERSE 2

e|---------------------------------------------------------------------------|
B|---------------------------------------------------------------------------|
G|----5/777777777777777777---------------------------------------------------|
D|----5/777777777777777777---------------------------------------------------|
A|----5/777777777777777777---------------------------------------------------|
E|----3/555555555555555555---------------------------------------------------|

e|----33333-------------xxxxx-------------xxxxx--------------x---------------|
B|----00000-------------33333-------------33333--------------3---------------|
G|----00000-------------00000-------------00000--------------0---------------|
   x4                x4                 x2
D|----00000-------------22222-------------00000--------------0---------------|
A|----22222-------------33333-------------22222--------------2---------------|
E|----33333-------------xxxxx-------------33333--------------3---------------|

PRE-CHORUS

e|----xxxxx-------------xxxxx-------------33333--------------33333-----------|
B|----33333-------------33333-------------00000--------------00000-----------|
G|----00000-------------00000-------------00000--------------00000-----------|
   x2                x2                 x2               x2
D|----00000-------------22222-------------00000--------------00000-----------|
A|----22222-------------33333-------------22222--------------00000-----------|
E|----33333-------------xxxxx-------------33333--------------22222-----------|

e|----xxxxx-------------x----------------------------------------------------|
B|----33333-------------3----------------------------------------------------|
G|----00000-------------0----------------------------------------------------|
   x3
D|----22222-------------2----------------------------------------------------|
A|----33333-------------3----------------------------------------------------|
E|----xxxxx-------------x----------------------------------------------------|

CHORUS

e|----xxxxx-------------xxxxx-------------33333--------------33333-----------|
B|----33333-------------33333-------------00000--------------00000-----------|
G|----00000-------------00000-------------00000--------------00000-----------|
   x2                x2                 x2               x2
D|----00000-------------22222-------------00000--------------00000-----------|
A|----22222-------------33333-------------22222--------------00000-----------|
E|----33333-------------xxxxx-------------33333--------------22222-----------|


e|----xxxxx-------------xxxxx-------------33333--------------33333-----------|
B|----33333-------------33333-------------00000--------------00000-----------|
G|----00000-------------00000-------------00000--------------00000-----------|
   x2                x2                 x2               x2
D|----00000-------------22222-------------00000--------------00000-----------|
A|----22222-------------33333-------------22222--------------00000-----------|
E|----33333-------------xxxxx-------------33333--------------22222-----------|

VERSE 3

e|----xxxxx-------------xxxxx-------------33333--------------33333-----------|
B|----33333-------------33333-------------00000--------------00000-----------|
G|----00000-------------00000-------------00000--------------00000-----------|
   x2                x2                 x2               x2
D|----22222-------------00000-------------00000--------------00000-----------|
A|----33333-------------22222-------------22222--------------00000-----------|
E|----xxxxx-------------33333-------------33333--------------22222-----------|

e|----xxxxx-------------x----------------------------------------------------|
B|----33333-------------3----------------------------------------------------|
G|----00000-------------0----------------------------------------------------|
  x2
D|----22222-------------0----------------------------------------------------|
A|----33333-------------2----------------------------------------------------|
E|----xxxxx-------------3----------------------------------------------------|

CHORUS

e|----xxxxx-------------xxxxx-------------33333--------------33333-----------|
B|----33333-------------33333-------------00000--------------00000-----------|
G|----00000-------------00000-------------00000--------------00000-----------|
   x2                x2                 x2               x2
D|----00000-------------22222-------------00000--------------00000-----------|
A|----22222-------------33333-------------22222--------------00000-----------|
E|----33333-------------xxxxx-------------33333--------------22222-----------|


e|----xxxxx-------------xxxxx-------------33333--------------33333-----------|
B|----33333-------------33333-------------00000--------------00000-----------|
G|----00000-------------00000-------------00000--------------00000-----------|
   x2                x2                 x2               x2
D|----00000-------------22222-------------00000--------------00000-----------|
A|----22222-------------33333-------------22222--------------00000-----------|
E|----33333-------------xxxxx-------------33333--------------22222-----------|

OUTRO

e|----xxxxx-------------xxxxx-------------33333--------------33333-----------|
B|----33333-------------33333-------------00000--------------00000-----------|
G|----00000-------------00000-------------00000--------------00000-----------|
   x2                x2                 x2               x2
D|----00000-------------22222-------------00000--------------00000-----------|
A|----22222-------------33333-------------22222--------------00000-----------|
E|----33333-------------xxxxx-------------33333--------------22222-----------|

e|----xxxxx-------------xxxxx-------------33333--------------33333-----------|
B|----33333-------------33333-------------00000--------------00000-----------|
G|----00000-------------00000-------------00000--------------00000-----------|
   x2                x2                 x2               x2
D|----00000-------------22222-------------00000--------------00000-----------|
A|----22222-------------33333-------------22222--------------00000-----------|
E|----33333-------------xxxxx-------------33333--------------22222-----------|

e|------------3--------------------------------------------------------------|
B|------------0--------------------------------------------------------------|
G|------------0--------------------------------------------------------------| END ON
D|------------0--------------------------------------------------------------|
A|------------2--------------------------------------------------------------|
E|------------3--------------------------------------------------------------|

I SPENT A LOT OF TIME ON THIS... IM PRETTY SURE IT'S 99.99% RIGHT. ITS A GREAT SONG.
FUN.

DAN ASROFF

| /  slide up
| \  slide down
| h  hammer-on
| p  pull-off
| ~  vibrato
| +  harmonic
| x  Mute note
comments
We did not receive enough feedback on this tab! Please rate:
print report bad tab
1 2 3 4 5
3 comments total.
0 reply
dedicated_2 wrote on August 11 2007, 03:22 pm

I dont think I can hear the song when i play your tabs...check out mine if you will.
but nice try though. dont give up.

-1 reply
dedicated_2 wrote on August 11 2007, 04:19 pm

not accurate

0 reply
cbwasson wrote on October 13 2009, 02:44 pm

I think its very very close, if not 100%. Good enough for me anyway, haha. A+

I want to post or [tab]
guest
You may want to rate the tab now too:
select rating
Please do not post tabs as comments. Select "correction" instead!